Cifra Club

Pepas

Farruko

Cifrado: Principal (guitarra y guitarra eléctrica)
tono: Am
[Primeira Parte] 

         Am                    Em
No me importa lo que de mí se diga
               G                    D
Viva usted su vida, que yo vivo la mía
            Am                  Em
Que solo es una, disfruta el momento
                   G                   D
Que el tiempo se acaba y pa' atrás no vira

   Am                   Em
Bebiendo, fumando y jodiendo
          G                       D
Sigo vacilando, de party to' los días

[Pré-Refrão] 

      Am  Em  G  D 
Síguelo 
      Am  Em  G  D 
Síguelo 

[Refrão] 

 Am                 Em      
Pepa y agua pa' la seca
                    G                D
To' el mundo en pastilla en la discoteca 
 Am                 Em      
Pepa y agua pa' la seca
                    G                D
To' el mundo en pastilla en la discoteca

[Solo] Am  Em  G  D
       Am  Em  G  D 
       Am  Em  G  D
       Am  Em  G  D
       Am  Em  G  D

Parte 1

E|-/5--7/8---8-8-8\7-7\5------------------------------|
B|------------------------\5------5-5-5/8-5-5/8-8~----|
G|----------------------------------------------------|
D|----------------------------------------------------|
A|----------------------------------------------------|
E|----------------------------------------------------|

E|----------------------------------------------------|
B|-8-8-8\12-8-8-7~--7--7------------------------------|
G|----------------------------------------------------|
D|----------------------------------------------------|
A|----------------------------------------------------|
E|----------------------------------------------------|

E|-/5--7/8---8-8-8\7-7\5------------------------------|
B|------------------------\5------5-5-5/8-5-5/8-8~----|
G|----------------------------------------------------|
D|----------------------------------------------------|
A|----------------------------------------------------|
E|----------------------------------------------------|

E|----------------------------------------------------|
B|-8-8-8\12-8-8-7---7---------------------------------|
G|----------------------------------------------------|
D|----------------------------------------------------|
A|----------------------------------------------------|
E|----------------------------------------------------|

Parte 2

E|-17-20--20-20-20-19-19-19-13------------------------|
B|-----------------------------15---15-15-15-17-17-17-|
G|----------------------------------------------------|
D|----------------------------------------------------|
A|----------------------------------------------------|
E|----------------------------------------------------|

E|----15---17-17-17-19-17-15-14-----------------------|
B|-18-------------------------------------------------|
G|----------------------------------------------------|
D|----------------------------------------------------|
A|----------------------------------------------------|
E|----------------------------------------------------|

Parte 3

E|----------------------------------------------------|
B|----13---13-13-13-12-12-12--------------------------|
G|-14------------------------12-----------------11-11-|
D|------------------------------14-----14-14-14-------|
A|----------------------------------------------------|
E|----------------------------------------------------|

E|----------------------------------------------------|
B|--------------------12------------------------------|
G|-12-14-----14-14-14----14-12-11---------------------|
D|----------------------------------------------------|
A|----------------------------------------------------|
E|----------------------------------------------------|

Parte 4

E|----------------------------------------------------|
B|----------------------------------------------------|
G|----------------------------------------------------|
D|-\7-10---10-10-9-9-/7-------------------------------|
A|----------------------7-----7-7-10-7-10-10----------|
E|----------------------------------------------------|

E|----------------------------------------------------|
B|----------------------------------------------------|
G|----------------------------------------------------|
D|-------7/9------------------------------------------|
A|-10-10-----10-10-9~-9-9-9---------------------------|
E|----------------------------------------------------|

Parte 1

E|-/5--7/8---8-8-8\7-7\5------------------------------|
B|------------------------\5------5-5-5/8-5-5/8-8~----|
G|----------------------------------------------------|
D|----------------------------------------------------|
A|----------------------------------------------------|
E|----------------------------------------------------|

E|----------------------------------------------------|
B|-8-8-8\12-8-8-7~--7--7------------------------------|
G|----------------------------------------------------|
D|----------------------------------------------------|
A|----------------------------------------------------|
E|----------------------------------------------------|

[Segunda Parte] 

 Am
Sube las mano' y las botella' pa' arriba
 Em
Siempre la movie la tenemo' prendía'
G
  Hoy, vamo' a darle hasta que se haga de día
 D
Sigo rulay y estoy en la mía

[Pré-Refrão] 

          Am  Em  
Salió el Sol
  G                        D
Tráeme la hookah y el alcohol
         Am  Em
Y préndelo
   G                  D
Esto se salió de control (de control)
        Am  Em  G  D 
Y síguelo 

[Refrão] 

 Am                 Em      
Pepa y agua pa' la seca
                    G                D
To' el mundo en pastilla en la discoteca (desacata'o)
 Am                 Em      
Pepa y agua pa' la seca
                    G                D
To' el mundo en pastilla en la discoteca (empastilla'o)

[Solo] Am  Em  G  D
       Am  Em  G  D 
       Am  Em  G  D
       Am  Em  G  D

Parte 2

E|-17-20--20-20-20-19-19-19-13------------------------|
B|-----------------------------15---15-15-15-17-17-17-|
G|----------------------------------------------------|
D|----------------------------------------------------|
A|----------------------------------------------------|
E|----------------------------------------------------|

E|----15---17-17-17-19-17-15-14-----------------------|
B|-18-------------------------------------------------|
G|----------------------------------------------------|
D|----------------------------------------------------|
A|----------------------------------------------------|
E|----------------------------------------------------|

Parte 3

E|----------------------------------------------------|
B|----13---13-13-13-12-12-12--------------------------|
G|-14------------------------12-----------------11-11-|
D|------------------------------14-----14-14-14-------|
A|----------------------------------------------------|
E|----------------------------------------------------|

E|----------------------------------------------------|
B|--------------------12------------------------------|
G|-12-14-----14-14-14----14-12-11---------------------|
D|----------------------------------------------------|
A|----------------------------------------------------|
E|----------------------------------------------------|

Parte 4

E|----------------------------------------------------|
B|----------------------------------------------------|
G|----------------------------------------------------|
D|-\7-10---10-10-9-9-/7-------------------------------|
A|----------------------7-----7-7-10-7-10-10----------|
E|----------------------------------------------------|

E|----------------------------------------------------|
B|----------------------------------------------------|
G|----------------------------------------------------|
D|-------7/9------------------------------------------|
A|-10-10-----10-10-9~-9-9-9---------------------------|
E|----------------------------------------------------|

Parte 1

E|-/5--7/8---8-8-8\7-7\5------------------------------|
B|------------------------\5------5-5-5/8-5-5/8-8~----|
G|----------------------------------------------------|
D|----------------------------------------------------|
A|----------------------------------------------------|
E|----------------------------------------------------|

E|----------------------------------------------------|
B|-8-8-8\12-8-8-7~------------------------------------|
G|----------------------------------------------------|
D|----------------------------------------------------|
A|----------------------------------------------------|
E|----------------------------------------------------|

[Primeira Parte] 

         Am                    Em
No me importa lo que de mí se diga
               G                    D
Viva usted su vida, que yo vivo la mía
            Am                  Em
Que solo es una, disfruta el momento
                   G                   D
Que el tiempo se acaba y pa' atrás no vira

   Am                   Em
Bebiendo, fumando y jodiendo
          G                       D
Sigo vacilando, de party to' los días

[Pré-Refrão] 

      Am  Em  G  D 
Síguelo 
      Am  Em  G  D 
Síguelo 

[Refrão] 

 Am                 Em      
Pepa y agua pa' la seca
                    G                D
To' el mundo en pastilla en la discoteca 
 Am                 Em      
Pepa y agua pa' la seca
                    G                D
To' el mundo en pastilla en la discoteca

[Solo] Am  Em  G  D
       Am  Em  G  D 
       Am  Em  G  D
       Am  Em  G  D
       Am  Em  G  D

Parte 1

E|-/5--7/8---8-8-8\7-7\5------------------------------|
B|------------------------\5------5-5-5/8-5-5/8-8~----|
G|----------------------------------------------------|
D|----------------------------------------------------|
A|----------------------------------------------------|
E|----------------------------------------------------|

E|----------------------------------------------------|
B|-8-8-8\12-8-8-7~--7--7------------------------------|
G|----------------------------------------------------|
D|----------------------------------------------------|
A|----------------------------------------------------|
E|----------------------------------------------------|

E|-/5--7/8---8-8-8\7-7\5------------------------------|
B|------------------------\5------5-5-5/8-5-5/8-8~----|
G|----------------------------------------------------|
D|----------------------------------------------------|
A|----------------------------------------------------|
E|----------------------------------------------------|

E|----------------------------------------------------|
B|-8-8-8\12-8-8-7---7---------------------------------|
G|----------------------------------------------------|
D|----------------------------------------------------|
A|----------------------------------------------------|
E|----------------------------------------------------|

Parte 2

E|-17-20--20-20-20-19-19-19-13------------------------|
B|-----------------------------15---15-15-15-17-17-17-|
G|----------------------------------------------------|
D|----------------------------------------------------|
A|----------------------------------------------------|
E|----------------------------------------------------|

E|----15---17-17-17-19-17-15-14-----------------------|
B|-18-------------------------------------------------|
G|----------------------------------------------------|
D|----------------------------------------------------|
A|----------------------------------------------------|
E|----------------------------------------------------|

Parte 3

E|----------------------------------------------------|
B|----13---13-13-13-12-12-12--------------------------|
G|-14------------------------12-----------------11-11-|
D|------------------------------14-----14-14-14-------|
A|----------------------------------------------------|
E|----------------------------------------------------|

E|----------------------------------------------------|
B|--------------------12------------------------------|
G|-12-14-----14-14-14----14-12-11---------------------|
D|----------------------------------------------------|
A|----------------------------------------------------|
E|----------------------------------------------------|

Parte 4

E|----------------------------------------------------|
B|----------------------------------------------------|
G|----------------------------------------------------|
D|-\7-10---10-10-9-9-/7-------------------------------|
A|----------------------7-----7-7-10-7-10-10----------|
E|----------------------------------------------------|

E|----------------------------------------------------|
B|----------------------------------------------------|
G|----------------------------------------------------|
D|-------7/9------------------------------------------|
A|-10-10-----10-10-9~-9-9-9---------------------------|
E|----------------------------------------------------|

Parte 1

E|-/5--7/8---8-8-8\7-7\5------------------------------|
B|------------------------\5------5-5-5/8-5-5/8-8~----|
G|----------------------------------------------------|
D|----------------------------------------------------|
A|----------------------------------------------------|
E|----------------------------------------------------|

E|----------------------------------------------------|
B|-8-8-8\12-8-8-7~------------------------------------|
G|----------------------------------------------------|
D|----------------------------------------------------|
A|----------------------------------------------------|
E|----------------------------------------------------|

[Final] Am  Em  G  D
        Am  Em  G  D
00:00 / 00:00
Otros videos de esta canción
Repetir
Otros videos de esta canción
Composición de Andy Bauza / Farruko / Franklin Jovani Martinez / Ghetto / IAmChino / Juan Manuel Gomez / K4G / Sharo Towers / Victor Alonso Cárdenas
Colaboración y revisión:
  • Getúlio Vasconcelos
470 vistas
    • ½ Tono
    • Am
    • Bbm
    • Bm
    • Cm
    • C#m
    • Dm
    • Ebm
    • Em
    • Fm
    • F#m
    • Gm
    • G#m
  • Agregar a la lista

    0 comentarios

    Ver todos los comentarios

    ¿Lograste tocar?

    1 Tocaron 0 Aún no

    ¡Graba un video tocando Pepas y envíanoslo!

    00:00 / 00:00
    OK