Cifra Club

Amor da Sua Cama

Felipe Araújo

Tablatura: Principal (guitarra)
tono: Em
[Intro]

              C9
E|---------------------x------------x-------|
B|-----8-7-3--------3--x--3---------x-------|
G|----------------0----x--0---------x-0-----|
D|-2/9-9-7-4----2------x--0h2--0h2--x-------|
A|------------3--------x--3---------x-------|
E|---------------------x------------x-------|

   D/C                                       
E|-------2--x--2--2/3\2p0-------------------|
B|-----3----x--3----------3-----------------|
G|---2------x--2----------------------------|
D|----------x-------------------------------|
A|-3--------x--3----------------------------|
E|----------x-------------------------------|
E|------------------------------------------|

                Em7
E|------------------------------------------|
B|----------12--7-8----12-------------------|
G|-------12-----7-7----12-------------------|
D|----12--------5-5----12-------------------|
A|--------------7-7-------------------------|
E|-0----------------------------------------|

   Em7
E|------------------------------------------|
B|-------7--8--3/5-3h5----------------------|
G|-----7----7-------------------------------|
D|---5------5----------4/5\4\2p0------------|
A|-7--------7-------------------------------|
E|------------------------------------------|

[Primeira Parte]

C9
  E se eu despir minha alma
   D/C
Será que ela também te excita?
    Bm7                                     Em7
Às vezes o amor se disfarça embaixo dos lençóis, reflita

[Riff]

E|------------------------------------------|
B|------------------------------------------|
G|-7/9-7h9p7--------------------------------|
D|------------9p7---------------------------|
A|------------------------------------------|
E|------------------------------------------|

[Segunda Parte]

C9
  Tenho vontade de ir mais fundo
     D/C
Mas não tenho certeza se ainda posso
    Bm7                                              Em7
Certeza eu tenho que posso ir além do que virar seus olhos

[Riff 2]

E|------------------------------------------|
B|-7h8-7h8p7--------------------------------|
G|------------9p7---------------------------|
D|------------------------------------------|
A|------------------------------------------|
E|------------------------------------------|

[Pré-Refrão]

                         C9
Além de transpirar seus poros
                      D
Além de arrancar sua roupa
                        Bm7                               Em7
Além de apresentar o caminho que você percorre com a sua boca
                       C9                     D
Mas ó: é só uma ideia boba, é só uma ideia boba

[Refrão]

 Em  D   C9
Tu__do  bem
                                 D
Se é pra você me usar o que que tem?
                        Bm7
Só de tá com você fico bem
                             Em7
Posso não ser o amor da sua vida
 Em  D   C9
Tu__do  bem
                                 D
Se é pra você me usar o que que tem?
                         Bm7
Tanto faz se você não me ama
                             Em7
Posso não ser o amor da sua vida
                          C9
Mas eu sou o amor da sua cama
            D
Ai ai ai ai ai
                          Bm7
Mas eu sou o amor da sua cama ai ai
   Em7
Ai ai

[Segunda Parte]

C9
  Tenho vontade de ir mais fundo
     D
Mas não tenho certeza se ainda posso
    Bm7                                              Em7
Certeza eu tenho que posso ir além do que virar seus olhos

[Pré-Refrão]

                         C9
Além de transpirar seus poros
                      D
Além de arrancar sua roupa
                        Bm7                               Em7
Além de apresentar o caminho que você percorre com a sua boca
                       C9                     D
Mas ó: é só uma ideia boba, é só uma ideia boba

[Refrão]

 Em  D   C9
Tu__do  bem
                                 D
Se é pra você me usar o que que tem?
                        Bm7
Só de tá com você fico bem
                             Em7
Posso não ser o amor da sua vida
 Em  D   C9
Tu__do  bem
                                 D
Se é pra você me usar o que que tem?
                         Bm7
Tanto faz se você não me ama
                             Em7
Posso não ser o amor da sua vida

 Em  D   C9
Tu__do  bem
                                 D
Se é pra você me usar o que que tem?
                        Bm7  Em7
Só de tá com você fico bem

 Em  D   C9
Tu__do  bem
                                 D
Se é pra você me usar o que que tem?
                         Bm7
Tanto faz se você não me ama
                             Em7
Posso não ser o amor da sua vida
                          C9
Mas eu sou o amor da sua cama
            D
Ai ai ai ai ai
                          Bm7
Mas eu sou o amor da sua cama ai ai
   Em7
Ai ai

 Em  D   C9  D
Tu__do  bem
      Em
Tudo bem
Composição de Felipe Araujo / Thales Lessa / Waléria Leão
Colaboración y revision:
5.836 reproducciones
  • Simplificar cifra
    • ½ Tono
    • Am
    • Bbm
    • Bm
    • Cm
    • C#m
    • Dm
    • Ebm
    • Em
    • Fm
    • F#m
    • Gm
    • G#m
  • Adicionar à lista

    0 comentarios

    Ver todos os comentários

    ¿Conseguiste tocar?

    63 Tocaram 28 Ainda não

    Grave um vídeo tocando Amor da Sua Cama e nos envie!

    00:00 / 00:00
    outros vídeos desta música
    repetir qualidade Automático
    Outros vídeos desta música
    00:00 / 00:00
    Automático
    OK