Cifra Club

Espetinho da Esquina

Felipe Araújo

Tablatura: Principal (guitarra)
tono: F
[Intro] C  G  Dm  F  G

E|-----------------------------------------|
B|-----5/8-5-5--------------5/8-5-5--------|
G|-------------5-5-7-7--------------5-5----|
D|-3/5------------------3/5----------------|
A|-----------------------------------------|
E|-----------------------------------------|

E|-----------------------------------------------|
B|-5-6-5---5-6-5-6-5-6--5-6-5---5-6-5-6--5h6/8~--|
G|-------7--------------------7------------------|
D|-----------------------------------------------|
A|-----------------------------------------------|
E|-----------------------------------------------|

 Am7
Já é dez e meia
                     F
Até queria te ligar mas não vai dar
                       C
Tenho certeza que não vai me atender
         G
Até porque eu sei que você tá
De saco cheio de me ver

Dm
  Aqui parado nessa esquina
 F
Todo dia, acabou com minha vida
    C
Largado, xonado, perdido, mamado
              G
Sofrendo de amor

    C
Eu tô pertinho da sua casa
   G
Aqui no espetinho da esquina
   Dm
Tomando tudo de novo outra vez
            F                      G
Gastei meu vale e o salário do próximo mês

    C
Eu tô pertinho da sua casa
   G
Aqui no espetinho da esquina
   Dm
Tomando tudo de novo outra vez
            F                      G
Gastei meu vale e o salário do próximo mês

( C  G  Dm  F  G )

E|-----------------------------------------|
B|-----5/8-5-5--------------5/8-5-5--------|
G|-------------5-5-7-7--------------5-5----|
D|-3/5------------------3/5----------------|
A|-----------------------------------------|
E|-----------------------------------------|

E|-----------------------------------------------|
B|-5-6-5---5-6-5-6-5-6--5-6-5---5-6-5-6--5h6/8~--|
G|-------7--------------------7------------------|
D|-----------------------------------------------|
A|-----------------------------------------------|
E|-----------------------------------------------|

 Am7
Já é dez e meia
                     F
Até queria te ligar mas não vai dar
                       C
Tenho certeza que não vai me atender
         G
Até porque eu sei que você tá
De saco cheio de me ver

Dm
  Aqui parado nessa esquina
 F
Todo dia, acabou com minha vida
    C
Largado, xonado, perdido, mamado
              G
Sofrendo de amor

    C
Eu tô pertinho da sua casa
   G
Aqui no espetinho da esquina
   Dm
Tomando tudo de novo outra vez
            F                      G
Gastei meu vale e o salário do próximo mês

    C
Eu tô pertinho da sua casa
   G
Aqui no espetinho da esquina
   Dm
Tomando tudo de novo outra vez
            F                      G
Gastei meu vale e o salário do próximo mês

    C
Eu tô pertinho da sua casa
   G
Aqui no espetinho da esquina
   Dm
Tomando tudo de novo outra vez
            F                      G
Gastei meu vale e o salário do próximo mês

 Am7
Já é dez e meia
                     F
Até queria te ligar mas não vai dar
Colaboración y revision:
  • Thiago Almeida
  • thiago
  • Dhenner Peres
13 reproducciones
    • ½ Tono
    • A
    • Bb
    • B
    • C
    • Db
    • D
    • Eb
    • E
    • F
    • F#
    • G
    • Ab
  • Adicionar à lista

    0 comentarios

    Ver todos os comentários

    ¿Conseguiste tocar?

    1 Tocaram 0 Ainda não

    Grave um vídeo tocando Espetinho da Esquina e nos envie!

    00:00 / 00:00
    outros vídeos desta música
    repetir qualidade Automático
    Outros vídeos desta música
    00:00 / 00:00
    Automático
    OK