Cifra Club

Hoje Eu Beberei

Felipe Araújo

Tablatura: Principal (guitarra)
tono: Bm
[Intro] Bm  D  E
        Bm  D  E

E|------------------------------------------|
B|------------------------------------------|
G|---6-6h7-7-7--7p6------6-6h7-7-7--7p6-----|
D|-9----------------9--9----------------9---|
A|------------------------------------------|
E|------------------------------------------|

E|------------------------------------------|
B|------------------------------------------|
G|-7-9-9h11-11-11--11p9-7-------------------|
D|------------------------------------------|
A|------------------------------------------|
E|------------------------------------------|

E|------------------------------------------|
B|-----7------10-10-9-9---------------------|
G|---7---7h9--------------------------------|
D|-7----------------------------------------|
A|------------------------------------------|
E|------------------------------------------|

E|------------------------------------------|
B|------------------------------------------|
G|---6-6h7-7-7--7p6------6-6h7-7-7--7h9-----|
D|-9----------------9--9----------------9---|
A|------------------------------------------|
E|------------------------------------------|

E|------------------------------------------|
B|---------------------10-7h9---------------|
G|-11-11p9\7---------7----------------------|
D|-----------7-----7------------------------|
A|-------------7/9--------------------------|
E|------------------------------------------|

[Primeira Parte]

   G          D
Sozinho, sem teu amor
    A        Bm
Perdido, na minha dor
     G          D
Eu choro, sua traição 
         A                             Bm
E as promessas que você me fez e o vento levou 

[Refrão]

               G
Hoje eu vou beber
             A
Hoje eu beberei
         D    A/C#
Por sua culpa
     Bm7
Sua culpa  

               G
Hoje eu vou beber
             A
Hoje eu beberei
         D    A/C#
Por sua culpa
     Bm7
Sua culpa  

           G             A
Por ver você deitada com ele 
                Bm7
e falando, não para!
              G
Por me apaixonar 
                A
por alguém que não tem vergonha
    Bm7
na cara 

               G
Hoje eu vou beber
             A
Hoje eu beberei
         D    A/C#
Por sua culpa
     Bm7
Sua culpa  

               G
Hoje eu vou beber
             A
Hoje eu beberei
         D    A/C#
Por sua culpa
     Bm7  D  E
Sua culpa  

[Primeira Parte]

   G          D
Sozinho, sem teu amor
    A        Bm
Perdido, na minha dor
     G          D
Eu choro, sua traição 
         A                             Bm
E as promessas que você me fez e o vento levou 

[Refrão]

               G
Hoje eu vou beber
             A
Hoje eu beberei
         D    A/C#
Por sua culpa
     Bm7
Sua culpa  

               G
Hoje eu vou beber
             A
Hoje eu beberei
         D    A/C#
Por sua culpa
     Bm7
Sua culpa  

           G             A
Por ver você deitada com ele 
                Bm7
e falando, não para!
              G
Por me apaixonar 
                A
por alguém que não tem vergonha
    Bm7
na cara 

               G
Hoje eu vou beber
             A
Hoje eu beberei
         D    A/C#
Por sua culpa
     Bm7
Sua culpa  

               G
Hoje eu vou beber
             A
Hoje eu beberei
         D    A/C#
Por sua culpa
     Bm7  D  E  Bm7
Sua culpa
Composição de Pedro Mendoza
Colaboración y revision:
  • Thiago Almeida
895 reproducciones
    • ½ Tono
    • Am
    • Bbm
    • Bm
    • Cm
    • C#m
    • Dm
    • Ebm
    • Em
    • Fm
    • F#m
    • Gm
    • G#m
  • Adicionar à lista

    0 comentarios

    Ver todos os comentários

    ¿Conseguiste tocar?

    1 Tocaram 1 Ainda não

    Grave um vídeo tocando Hoje Eu Beberei e nos envie!

    00:00 / 00:00
    outros vídeos desta música
    repetir qualidade Automático
    Outros vídeos desta música
    00:00 / 00:00
    Automático
    OK