Cifra Club

Juntos

Felipe Araújo

Tablatura: Principal (guitarra)
tono: Bm
[Intro]  D  F#m7  Em7  G

E|----------------------------------------5-----3-2--3-5/6-6-5--------|
B|----------7-7----------7------------7-7---5-3----------------3-5~---|
G|--------7-------7-7-9----6-6--7-7-9---------------------------------|
D|--7-7-9-------------------------------------------------------------|
A|--------------------------------------------------------------------|
E|--------------------------------------------------------------------|

    D
Eu vi que você apagou
                      F#m7
As fotos com o seu namorado
                      Em7
E postou outra de manhã
Com a legenda que dizia assim
 G                           D
Tudo tem começo, o meio e o fim

                             F#m7
Não vou negar que tô feliz agora
                              G
Mas vou te respeitar nesse momento
                              Em7
Quando doendo, mas não vou negar
                                Bm7
Só tava esperando essa hora chegar
                            A9
Tô indo aí pra enxugar seu rosto
                              G  Gm
Talvez meu ombro sirva de consolo

               D
Agora pode chorar
               F#m7
Agora pode chorar
               Em7
Agora pode chorar
              G
Logo a gente vai tá rindo disso tudo
               D
Agora pode chorar
             F#m7
Agora pode chorar
               Em7
Agora pode chorar
        G
Logo a gente vai tá rindo disso tudo
    D
Juntos

[Solo] F#m7  Em7  G

E|---------------------------5-----3-2--3-5/6-6-5----3-5-6-8-10/12~--|
B|---------7-------------7-7---5-3----------------3------------------|
G|--7-7-9----6-6--7-7-9----------------------------------------------|
D|-------------------------------------------------------------------|
A|-------------------------------------------------------------------|
E|-------------------------------------------------------------------|

Em7                                Bm7
   Só tava esperando essa hora chegar
                            A9
Tô indo aí pra enxugar seu rosto
                              G  Gm
Talvez meu ombro sirva de consolo

               D
Agora pode chorar
               F#m7
Agora pode chorar
               Em7
Agora pode chorar
              G
Logo a gente vai tá rindo disso tudo
               D
Agora pode chorar
               F#m7
Agora pode chorar
               Em7
Agora pode chorar
              G
Logo a gente vai tá rindo disso tudo
    D
Juntos

              D
Agora pode chorar
               F#m7
Agora pode chorar
               Em7
Agora pode chorar
              G
Logo a gente vai tá rindo disso tudo
    D
Juntos

[Solo] F#m7  Em7  G

E|---------------------------5-----3-2--3-5/6-6-5------|
B|---------7-------------7-7---5-3----------------3-5--|
G|--7-7-9----6-6--7-7-9--------------------------------|
D|-----------------------------------------------------|
A|-----------------------------------------------------|
E|-----------------------------------------------------|
Composição de Bruno Mandioca / Flávinho Do Kadet / Maycow Mello / Thales Lessa
Colaboración y revision:
  • Thiago Almeida
  • Marcos Paulo
  • thiago
31 reproducciones
    • ½ Tono
    • Am
    • Bbm
    • Bm
    • Cm
    • C#m
    • Dm
    • Ebm
    • Em
    • Fm
    • F#m
    • Gm
    • G#m
  • Adicionar à lista

    0 comentarios

    Ver todos os comentários

    ¿Conseguiste tocar?

    2 Tocaram 0 Ainda não

    Grave um vídeo tocando Juntos e nos envie!

    00:00 / 00:00
    outros vídeos desta música
    repetir qualidade Automático
    Outros vídeos desta música
    00:00 / 00:00
    Automático
    OK