Cifra Club

Loco

Felipe Peláez

Cifrado: Principal (guitarra y guitarra eléctrica)
tono: G
E|-------------------15-15--17-15--10-12------10-12-10-8-7--------------|
B|----12--12-13-15------------------------------------------------------|
G|----------------------------------------------------------------------|
D|----------------------------------------------------------------------|
A|----------------------------------------------------------------------|
E|----------------------------------------------------------------------|

E|-------------------15-15--17-15--19-12------10-12-10-8-7--------------|
B|----12-13-15----------------------------------------------------------|
G|----------------------------------------------------------------------|
D|----------------------------------------------------------------------|
A|----------------------------------------------------------------------|
E|----------------------------------------------------------------------|


G              D
Te regalo un te quiero mi amor
Em               Bm
Te regalo una flor desnuda
C                G
Te regalo mis sueños, mi fe
     Am              D
Y tal vez me quede corto.

G              D
Te regalo un rayito de sol
Em               Bm
Una nube cargada de lluvia
C                G
Media vida porque la otra media
     Am              D
Es para vivirla siempre junto a ti.

G       D    C              G  D Em
Loco,   loco,    loco por tu amor
Em     Bm    C         D
Loco, loco, loco de remate

G
Loco por contar
        Em
Cada pequita de tu cuerpo
C
Loco por decirte
       D
Que te amo todo el tiempo
G
Loco por buscar
     Em
Excusas para darte un beso
C                    Am
Loco simplemente soy tu loco
      D
Y tu mi amor

G       D     C           G  D Em
Loco,   loco,    loco por tu amor
Em     Bm    C         D
Loco, loco, loco de remate

G              D
Te regalo un concierto de besos
Em            Bm
Un boleto directo al amor
C                G
Esas ganas de hacerte feliz
     Am              D
Y tal vez me quede corto.


G              D
Te regalo la cima del cielo
Em            Bm
Las burbujas de amor De Juan Luís.
C                G
Un segundo es un siglo sin ti
          Am
A dios le pido q si muero
         D
Sea de amor por ti.

G       D     C           G   D Em
Loco,   loco,    loco por tu amor
Em     Bm    C         D
Loco, loco, loco de remate
Composición de Dainer Sierra/Ivonne e Ivette
15 vistas
    • ½ Tono
    • A
    • Bb
    • B
    • C
    • Db
    • D
    • Eb
    • E
    • F
    • F#
    • G
    • Ab
  • Agregar a la lista

    0 comentarios

    Ver todos los comentarios

    ¿Lograste tocar?

    0 Tocaron 0 Aún no

    ¡Graba un video tocando Loco y envíanoslo!

    00:00 / 00:00
    Outros vídeos desta música
    Repetir Calidad Automático
    Outros vídeos desta música
    00:00 / 00:00
    Automático
    OK