Cifra Club

O Que Sua Glória Fez Comigo

Fernanda Brum

Cifrado: Principal (guitarra y guitarra eléctrica)
Selo Cifra Club: esta cifra foi revisada para atender aos critérios oficiais da nossa Equipe de Qualidade.
tono: Dm
[Intro] Bb  C  Am  Dm
        Bb  C  Am  Dm

[Tab - Intro]

Parte 1 de 4
   Bb       C
E|----------------------------------------|
B|-6-5------5-----------------------------|
G|-----7-5----7-5-------------------------|
D|----------------------------------------|
A|----------------------------------------|
E|----------------------------------------|

Parte 2 de 4
   Am       Dm
E|---------------0--1---------------------|
B|-6-5------3-----------------------------|
G|-----5-------2--------------------------|
D|-------7--0-----------------------------|
A|----------------------------------------|
E|----------------------------------------|

Parte 3 de 4
   Bb       C
E|----------------------------------------|
B|-6-5------5-----------------------------|
G|-----7-5----7-5-------------------------|
D|----------------------------------------|
A|----------------------------------------|
E|----------------------------------------|

Parte 4 de 4
   Am       Dm
E|---------------1------------------------|
B|-6-5------3-----------------------------|
G|-----5-------2--------------------------|
D|-------7--0-----------------------------|
A|----------------------------------------|
E|----------------------------------------|

[Primeira Parte]

Bb             Gm7
   Eu me rasgo     por inteiro
Am                 Dm
   Faço tudo, mas vem novamente
Bb                 Gm7
   Eu mergulho na mirra ardente
Am                      Dm
   Mas peço que Tua presença aumente

[Solo] Bb  Gm7  Dm  Am
       Bb  Gm7  Dm  Am

[Tab - Solo]

Parte 1 de 2
E|------------------------------------------|
B|-13\10-10~---10--8--6--5--6---------------|
G|------------------------------5-7---------|
D|----------------------------7-------------|
A|------------------------------------------|
E|------------------------------------------|

Parte 2 de 2
E|------------------------------------------|
B|-13\10-10~---10--8--6--5--6---------------|
G|------------------------------5-7---------|
D|----------------------------7-------------|
A|------------------------------------------|
E|------------------------------------------|

Bb             Gm7
   Eu me rasgo     por inteiro
Am                 Dm
   Faço tudo, mas vem novamente
Bb                 Gm7
   Eu mergulho na mirra ardente
Am                      Dm
   Mas peço que Tua presença aumente

[Pré-Refrão]

Bb                      Gm7          C
   E se eu passar pelo fogo não temerei
                   Am
Na Tua fumaça de glória eu entrarei
Bb                     Gm7
   Longe do Santo dos Santos
                C4  C
Não sei mais viver

[Refrão]

      F/A  Bb                 C7/Bb
Quem já   pisou no santo dos santos
            Am             Dm
Em outro lugar não sabe viver
            Bb              C
E onde estiver clama pela glória
             F4  F  F4  F       
A glória de Deus

( F  Gm  Am )

         Bb                 C7/Bb
Quem já pisou no santo dos santos
            Am             Dm
Em outro lugar não sabe viver
            Bb              C
E onde estiver clama pela glória
             F4  F
A glória de Deus

[Ponte]

  Bb  C/Bb        Am  Dm
Gló________ria, gló_ria
  Bb  C/Bb        Am  Dm
Gló________ria, gló_ria
 Bb  C/Bb      Am  Dm
San_______to, San_to
 Bb  C/Bb      Am  Dm
San_______to, San_to

 Bb  C/Bb        Am  Dm
Ka________dosh, ka__dosh
 Bb  C/Bb        Am  Dm
Ka________dosh, ka__dosh
 Bb  C/Bb      Am  Dm
Ho________ly, Ho__ly
 Bb  C/Bb      Am  Dm
Ho________ly, Ho__ly

[Refrão]

         Bb                 C/Bb
Quem já pisou no santo dos santos
            Am             Dm
Em outro lugar não sabe viver
            Bb              C
E onde estiver clama pela glória
             F4  F  F4
A glória de Deus

         Bb                 C/Bb
Quem já pisou no santo dos santos
            Am             Dm
Em outro lugar não sabe viver
            Bb              C
E onde estiver clama pela glória
             F4  F  F4  F
A glória de Deus

[Final]

  Bb  C/Bb        Am  Dm
Gló________ria, gló_ria
  Bb  C/Bb        Am  Dm
Gló________ria, gló_ria
00:00 / 00:00
Otros videos de esta canción
Repetir
Otros videos de esta canción
3.279.969 exhibiciones
  • Simplificar cifrado
    • ½ Tono
    • Am
    • Bbm
    • Bm
    • Cm
    • C#m
    • Dm
    • Ebm
    • Em
    • Fm
    • F#m
    • Gm
    • G#m
  • Agregar a la lista

Afinación de cifrado

Afinador online

    00:00 / 00:00
    OK