Cifra Club

Aprenda

Quebrantado Coração

Fernanda Brum

Tablatura: Completa (guitarra)
Tom: A (con acordes en la forma de G) Capotraste na 2ª casa
  Intro:   Am           F7M            Am    G     C  G/B  G
       E|--0-0----------------------|--0-0------3-0-3----3-|
       B|-1-3--0h1p0h1-1~--0p1p0----|-1-3--0h1-3--1-3--0-3-|
       G|-2----0-------2~-2-----2p0-|-2----0-----------0---|
       D|--------------2~-----------|----------------------|
       A|-0-------------------------|-0-----------3-2------|
       E|------3-------1~-----------|------3-----------3-3-|

      Am          G       F7M        Am     G  F7M                              E
      Tudo que eu tenho a te ofertar/é um queb.coração/ Eu queria ter,muito muito mais
       E|---------------------------|----0------0-----1-|--------|---|---------|-----|
       B|-1-0p1-3-0----1-1-1-1------|-1-0---0h1---1-1---|-1-1----|-1~|---3---3-|--0--|
       G|-2-------0-0--2-2-2-2------|-2-----0-----2--0--|-2-2----|-2~|---1---1-|--1--|
       D|--------------2---2--------|-------------2-----|-2------|-2~|---3-----|--2--|
       A|-0-------------------------|-0-----------------|--------|---|---2-----|-----|
       E|---------3----1---1--------|-------3-----1-----|-1~-----|-1-|---------|--0--|
                    [Puxe os acordes]                     Neste trexo,puxe os acordes
                                                             de acordo c/ a frase

      Am               G         F7M      E  Am   G
      Mas tudo que eu tenho é:Um quebr. co-ra-ção
       E|--0----0----|--------|--------|--------------------|
       B|--1----1----|-0----0-|--1---1-|-3--0--1----------0-|
       G|--2---------|-0----0-|--2---2-|-1--1--2--------0---|
       D|------------|-0------|--2-----|-3--2--2------0-----|
       A|--0---------|--------|--------|-2-----0------------|
       E|------------|-3------|--1-----|----0------3--------|
            Nexte trexo, puxe os Acordes          Arpejo

                Refrão [2x]

       C    G/B        Am          F7M G7M Am G/B
      Um queb.coração  move o cora-ção-de-Deus
       E|---------3---|----------|-------------3-|
       B|----1-3-3-3--|----1-----|--1---3--1---3-|
       G|---0--0------|---2------|--2---4--2-----|
       D|--2----------|--2-------|--2---4--2-----|
       A|-3----2------|-0--------|---------0---2-|
       E|-------------|----------|--1---3--------|
                                 [Puxa os acordes]
                               de acordo c/ a frase

       C          G/B        F7M G7M C4 G/B
      Um queb.coração/traz o céu pra nós
       E|-------------3----|----|---|----3-|
       B|----0-0h1-3-3-3---|--1-|-3-|-1--3-|
       G|---0------0-------|--2-|-4-|-0----|
       D|--2---------------|--2-|-4-|-3----|
       A|-3--------2-------|----|---|-3--2-|
       E|------------------|--1-|-3-|------|

       C9                        G
       Conhecer a Deus é ir mais além
       Am7                      F
       É rasgar o céu com o coração
       C                       G
       É tocar a Deus com uma canção       passagem
             Am  Em   F  G     C             G  A7
       De um que-bran-ta-do  coração
        E|----0---0---1---3----0--0--0--|-3-3-3/5-5-5-|
'       B|----1---0---1---3----1--1--1--|-3-3-3/5-5-5-|
        G|----2---0---2---0----0--0--0--|-0-0-0-0-0-0-|
        D|----2---2---3---0----2--2--2--|-------------|
        A|----0---2---3---2----3--3--3--|-------------|
        E|------------1---3-------------|-3-3-3/5-5-5-|
            [Neste trexo arpeje]            [puxe]
                c/ o polegar               os acordes
         D                  A/C#
         Um quebrantado coração
         Bm7         G      A7
         Move o coração de Deus
         D                  A/C#
         Um quebrantado coração
                 G  A7  Bm  A
         Traz o céu pra nós

         D                  A/C#
         Um quebrantado coração
         Bm7          G      A7
         Move o coração de Deus
         D                   A/C#
         Um quebrantado coração
                 G  A7  Bm7 A7        G   A7  Bm7 A7
         Traz o céu pra nós    traz o céu pra nós
         E|------3-|-5-|-2-|-0-|-----|-3-|-5-|2-|-0-|
         B|------3-|-5-|-3-|-2-|-----|-3-|-5-|3-|-2-|
         G|------0-|-0-|-2-|-0-|-----|-0-|-0-|2-|-0-|
         D|--------|---|---|-2-|-----|---|---|--|-2-|
         A|--------|---|-2-|-o-|-----|---|---|2-|-0-|
         E|------3-|-5-|---|---|-----|-3-|-5-|--|---|

                        Solo final
                 Bm7 A G      D
          Move o co-ra-ção de Deus
         E|-0h2h3-3-3------14|-5~-14-7------7-|-7-------------|
         B|----------3/5-3~--|-5~----7-5-5h7--|-7-15-14-12-10-|
         G|------------------|----------------|---------------|
         D|-------0----------|----------------|---------------|
         A|----------0-------|----------------|---------------|
         E|--------------2~--|-5~----7--------|-7-------------|
                 D(5ª) A  D(5ª) A   D(5ª) A   D(5ª) A    D
         E|-5--5----|-5--5----|-5--5----|-5--5-----|-----2~-|
         B|-3-3-3-2-|-3-3-3-2-|-3-3-3-2-|-3-3-3-2~-|----3~--|
         G|-2-------|-2-------|-2-------|-2--------|---2~---|
         D|-4-------|-4-------|-4-------|-4--------|--0-----|
         A|-------0-|-------0-|-------0-|-------0--|-0------|
         E|---------|---------|---------|----------|--------|
Compositor Emerson Pinheiro / Fernanda Brum
Colaboración y revision:
  • Fellipe
  • fellipe
34 reproducciones
    • ½ Tom
    • A
    • Bb
    • B
    • C
    • Db
    • D
    • Eb
    • E
    • F
    • F#
    • G
    • Ab
  • Adicionar à lista

    0 comentarios

    Mostrar mais comentários

    ¿Conseguiste tocar?

    1 Tocaron 0 Ainda não

    Grave um vídeo tocando Quebrantado Coração e mande pra gente!

    00:00 / 00:00
    outros vídeos desta música
    repetir qualidade Automático
    Outros vídeos desta música
    00:00 / 00:00
    Automático
    OK