Enviar cifraEntrar

Mil Cairão

Fernandinho

Acordes: Principal
reproducciones 554
Tono: E
Intro: G#m  B  Eb9


D|-----------------------------------------------------------------------||
A|-----------------------------------------------------------------------||
F|-----------------------------------------------------------------------||
C|-----------------------------------------------------------------------||
G|--1--1--1--1---4--4--4--4----------------------------------------------||
D|----------------------------------1--1--1--1---------------------------||


           G#m        B        Eb9
E|-----------------------------------------------------------------------||
B|-----------------------------------------------------------------------||
G|-----------------------------------------------------------------------||
D|--6-6-6-6----9-9-9-9---13-13-13-13-13-13-13-13-------------------------||
A|--x-x-x-x----x-x-x-x----x--x--x--x--x--x--x--x-------------------------||
E|--4-4-4-4----7-7-7-7---11-11-11-11-11-11-11-11-------------------------||


   Eb9 pode ser feito também como:
E|-----------------------------------------------------------------------||
B|-----------------------------------------------------------------------||
G|-8-8-8-8-8-8-8-8-------------------------------------------------------||
D|-x-x-x-x-x-x-x-x-------------------------------------------------------||
A|-6-6-6-6-6-6-6-6-------------------------------------------------------||
E|-----------------------------------------------------------------------||


Riff principal:


             G#m               E         F#m         G#m            E        F#m
E|---------------------------------------|---------------------------------------||
B|---------------------------------------|-----------------------------7-7-7-----||
G|---------------------------------------|-----------------------------6-6-6-----||
D|P.M-------6--9-----6-------2--6-----4--|P.M----6--9---6-----2-----4--4-4-4-----||
A|P.M-----6--6-----6-------2--2-----4----|P.M--6--6----6-----2-2-----------------||
E|P.M---4--------4-------0--------2------|P.M-4-------4-----0--------------------||


G#m           E    G#m              E
 Aquele que habita   no seu esconderijo,
G#m           E    G#m      E
 Em seus braços descansará.

(Repete as mesmas notas)

 Nenhum mal te sucederá, nem maldição te alcançará."
 Diz o Senhor, diz o Senhor, diz o Senhor...
 Levanto os meus olhos, eu sei de onde vem o meu socorro,
 Vem do Senhor, vem do Senhor, vem do Senhor...

*Meio tempo em cada acorde

G#m          E                B                  F#        G#m
 Mil cairão ao meu lado, dez mil cairão à minha direita, mas, eu não,
  E              B          F#
 Nunca serei atingido, não!
                 G#m
 Nunca serei atingido, não!
  E               B         F#
 Nunca serei atingido, não!
                G#m  (E B F#)
 Nunca serei atingido... (2x)

G#m
 O O O o o... (4x) ( apenas Bateria na 2x até a 4x )

(Repete Tudo)

Aquele que habita no seu esconderijo,
em braços descansará.
Nenhum mal te sucederá, nem maldição te alcançará."
Diz o Senhor, diz o Senhor, diz o Senhor...
Levanto os meus olhos, eu sei de onde vem o meu socorro,
Vem do Senhor, vem do Senhor, vem do Senhor...

Guitarra Solo:

 Aquele que habita...  | Em seus braços... | Nenhum mal...      

E|---------------------|-------------------|--------------------|
B|---9~---7~---9~------|--9~---12~---------|--9~---7~---9~--12~-|
G|---------------------|-------------------|--------------------|
D|---------------------|-------------------|--------------------|
A|---------------------|-------------------|--------------------|
E|---------------------|-------------------|--------------------|


  Levanto os meus olhos... | Vem do Senhor...        

E|---11~-------------------|-11~--14~----------------||
B|---------9~--------------|-------------------------||
G|-------------------------|-------------------------||
D|-------------------------|-------------------------||
A|-------------------------|-------------------------||
E|-------------------------|-------------------------||


G#m          E                B                  F#        G#m
 Mil cairão ao meu lado, dez mil cairão à minha direita, mas, eu não,
  E              B          F#
 Nunca serei atingido, não!
                 G#m
 Nunca serei atingido, não!
  E               B         F#
 Nunca serei atingido, não!
                 G#m  (E B F#)
 Nunca serei atingido... (2x)

G#m (Baixo e bateria ao fundo)

 Mil cairão ao meu lado, dez mil cairão à minha direita

    H.N*

E|---7-7-7-7-------------------------------------------------------------||
B|-----------7-7-7-7-----------------------------------------------------||
G|----------------7-7-7-7------------------------------------------------|| 
D|----------------------7-7-7--------------------------------------------|| 
A|-----------------------------------------------------------------------|| 
E|-----------------------------------------------------------------------||


G#m          E                B                  F#        G#m
 Mil cairão ao meu lado, dez mil cairão à minha direita, mas, eu não,
  E              B          F#
 Nunca serei atingido, não!
                 G#m
 Nunca serei atingido, não!
  E              B          F#
 Nunca serei atingido, não!
                 G#m  (E B F#)
 Nunca serei atingido... (2x)
  • 1
  • 2
  • 3
  • 4
  • 5
  • 6
  • 7
  • 8
  • 9
  • 10
  • 11
  • 12
    Acordes para:

      0 comentarios

        mostrar mas comentarios

        ¿Conseguiste tocar?

        25tocaron2aún no

        ¡Grave un vídeo tocando Mil Cairão y envie para nosotros!

        00:00 / 00:00
        outros vídeos desta música
        repetirqualidadeautomática
        • automática
        Outro vídeos desta música
          00:00 / 00:00
          automática
          • automática
          2 versiones de Contrabajoreproduccionescontribuciones
          2 versiones de Guitar Proformatodownloadscontribución
          cerrarplay/pause subir/bajar velocidad
            acordes
            cerrar
            OK
            Feedback