Cifra Club

Seu Sangue

Fernandinho

Tab de bajo: Principal
Já pensou em usar uma coleção de roupas do Cifra Club? Responda as perguntas abaixo e nos ajude nessa missão! →
(intro)

G |---------------------------------
D |---------------------------------
A |---------------------------------
E |-2-2--2-2--2-2--2-2--2-2---------

(pode variar com o acorde e ir para a oitava respectiva do F#)
G |------------------------------------------
D |----------------------4-4--4-4--4-4-------
A |------------------------------------------
E |-2-2----2-2-----2-2-----------------------

(riff 1)
A           E
Seu sangue,  Sua cruz
F#m           D
Me levam de volta pra Deus
A          E
Sua morte,   Sua vida
F#m          D
As trevas,  ele já venceu

E          D             E            D
Seu amor me conquistou, Sou eterno devedor

G              D
O véu se rasgou
                       F#m
Sua luz em mim brilhou
                   D                   Bm   E
Sua glória me cobriu Mais que vencedor eu sou
                   Bm  E
Mais que vencedor eu sou

(refrão - notas agudas menos o D)

A                          E
Sei que na sala do trono está
               F#m
Eu quero ir pra lá
            D
Pelo novo e vivo caminho

(na parte em que fica apenas a bateria, no segundo coro tem a o solinho que o baixo faz junto com a guitarra)
(4 cordas)
G |---9-6------------------------------
D |-------7---9-6h7p6-----6h7-6--------
A |---------7---------9-7--------------
E |------------------------------------



(repete intro 4x) F#m

(na quarta vez acompanha de novo, oitavando o que a guitarra faz)

Aqui você pode repetir a nota LA G |--7 ou então faze-la grave na E |--5
Eu particularmente prefiro dar o grave pra dar um peso no fim! Fica a critério

G |---9---------------------
D |-----7-9-----7/0---------
A |---------7-9-----0-------
E |-------------------------
Colaboración y revision:
  • Deivyd Kan
  • Daniel Xavier
903 reproducciones

0 comentarios

Ver todos os comentários
00:00 / 00:00
outros vídeos desta música
repetir qualidade Automático
Outros vídeos desta música
00:00 / 00:00
Automático
OK