Notificações Amigos pendentes

      Fernandinho

      Te Adorar

      320 reproducciones
      Tono: D
      (intro teclado 1x) Bm G/B  A
      
      (solo)
      
                        Bm                G/B                           A
      E|----------------------------------------------------------------||
      B|--------------------------10~-----------------------------------||
      G|------------------11~-9~-------11~-11~------11x-11x-10/11-9~-9~-||
      D|-0x-0x-9\7/9-9~-------------------------------------------------||
      A|----------------------------------------------------------------||
      E|----------------------------------------------------------------||
      
      
                            Bm          G/B           A
      E|-----------------------------------------------------------||
      B|------------------12/14-14------10--------------7/8/10_10~-||
      G|---------------11----------14-9----11~-11~- -10------------||
      D|-0x-0x-9-7-9~----------------------------------------------||
      A|-----------------------------------------------------------||
      E|-----------------------------------------------------------||
      
      
                   A
      E|--------------------------------------------||
      B|--12/14-14/15-14----------------------------||
      G|-----------------14-------------------------||
      D|--------------------14-12-11----------------||
      A|-----------------------------12-------------||
      E|--------------------------------12-10-9~ /0-||
      
      
         D      A          Bm        A
      o sol, a lua,   estrelas e o mar
                  Em          Bm       A4 A
      nada se compara ante a sua formosura
          D           A         Bm          A
      os homens, os reinos, principados e potestades
          Em             Bm     A4     A
      se prostram ante a sua majestade
                      Em       Bm                 A
      porque d'Ele por Ele para Ele são todas as coisas
                       Em       Bm                A
      porque d'Ele por Ele para Ele são todas as coisas
                    Bm   G      D     A
      só me resta te adorar, te adorar
                   Bm   G       D    A
      eu só quero te adorar, te adorar
                    Bm   G       D     A
      eu nasci pra te adorar, te adorar
                     Em      Bm            A
      e dizer que te amo, te amo te amo, te amo
                      G     Bm             A
      e dizer que te amo, te amo te amo, te amo
      
      (solo)
      
                                                                Bm
      E|---------------------------------------------------------||
      B|-------------------------------------12-14-14/15~--12----||
      G|-------------------11-11-12-12-14-14-----------------12~-||
      D|-11-11-12-12-14-14---------------------------------------||
      A|---------------------------------------------------------||
      E|---------------------------------------------------------||
      
      
                       A               G                       D/F#
      E|---------------------------------------------------------||
      B|-12/15\14~---------10-10h12~-10~-12~-10~-10/12~----------||
      G|-----------11-11~-------------------------------14~--14~-||
      D|---------------------------------------------------------||
      A|---------------------------------------------------------||
      E|---------------------------------------------------------||
      
      
                          E                      Bm
      E|-----------------------------------------------------||
      B|------------------12b~---15/17b~-15b~-15b~-15b~-15b~-||
      G|----12-11-----13~------------------------------------||
      D|-12-------14~----------------------------------------||
      A|-----------------------------------------------------||
      E|-----------------------------------------------------||
      
      
                  G/B                             Bm         G/B
      E|-------------------------------------------------||
      B|-------15----14----12----10----------------------||
      G|----------------------------12----11~-9/11----9~-||
      D|-11/12----12----12----12-------12----------12----||
      A|-------------------------------------------------||
      E|-------------------------------------------------||
      
      
                 G/B       D9 D
      E|------------------||
      B|------------------||
      G|------------------||
      D|------------------||
      A|-11/12-12~-11-12~-||
      E|------------------||
      
        Composición: fernandinhoColaboración y revision:
        • paulo
        • Daniel
        • Luciano
        • Iago?
        • +10

        Comentarios 8

        140 .
        • deivid deivid: Em 13/12/2013 11:06

          O tom ta errado e B nao D

          • Leonardo Leonardo: Em 12/04/2015 17:07

            Comentário removido

          • will.contabil will.contabil: Em 27/08/2015 20:26

            em B eu pude perceber que é a versão acústica, porém a versão original é realmente em D

        • deleidson deleidson: Em 27/09/2012 15:22

          deveria mesmo ter o video aula mas tbm e so ouvir a musica um pouco repetidamente

        • marielamiv marielamiv: Em 19/07/2012 22:22

          alguem sabe o ritmo e a batida?

          • alex alex: Em 11/07/2013 18:17

            faz assim ↓↓ ↑↑ ↓↓ ↑ fica bom tbm

          • alex alex: Em 11/07/2013 18:43

            faz assim ↓↓ ↑↑ ↓↓ ↑

        • k2222222222 k2222222222: Em 22/01/2012 15:48

          gostaria que a musica: TE ADORA DE FERNANDINHO. teve cer o vídeo aula

        140 cancelar

        ¿conseguiste tocar?

        • •••

        covers

        ¡Grave un vídeo tocando Te Adorar y envie para nosotros!

        Ex.: http://www.youtube.com/watch?v=0IvSvIwGdwk
        ver cover de otras canciones »
        0:00 / 0:00

        Capitulos

          1 versão de Guitar Proformatodownloadscontribuición
          play/pausefechar subir/bajar velocidad
          6ª cuerda E5ª cuerda A4ª cuerda D3ª cuerda G2ª cuerda B1ª cuerda E
            acordes
            publicidad
            cerrar
            ok