Cifra Club

Teus Sonhos

Fernandinho

Tablatura: Principal (guitarra)
reproducciones 764
Tono: C
[Intro]  Em  G

E|-----3-3h5-3----------8--7----3-----------|
B|-----3-3h5-3----------8--8----3--3--------|
G|---------------------------------2--------|
D|------------------------------------------|
A|------------------------------------------|
E|---------------------------------2--------|                                                      
   
E|--------------------------------------------------------------------|
B|--------------------------------------------------------------------|
G|-------------------4-5-4--------------------------4-5-4-------------|
D|---4h5--4-5-5/7-----------7-5-4--4h5---4-5-5/7-----------7-5-4--4h5-|
A|--------------------------------------------------------------------|
E|--------------------------------------------------------------------|

Em                G
Guarda o meu coração oh Deus
Em                G
Guarda o meu coração
                  Am
De fazer minha vontade
                  D
De viver pra mim mesmo 

C9                      G      D
Quão insondáveis são os teus caminhos
C9                   G      D
Inescrutáveis são os teus juízos

         Em         G
Minha vontade já deixei
       C           D
O teu Reino já ganhei
          Em        G
Minha vontade já deixei
       C           D
O teu Reino já ganhei

         G            C               D
Os teus sonhos são maiores do que os meus
          Em               C               D
Os teus caminhos bem mais altos do que os meus
             Em
Toma minha vida
C       D
Tudo é teu
            Em
Toma minha vida
C      D
Tudo é teu 

 [Solo]  C Gm7 Dm C
E|----------------------------------------------------------------------|
B|----------------------------------------------------------------------|
G|----------------------------------------------------------------------|
D|--14-14-14-14-14-14---5~~----15-15-15-15-15-15---8~-7----15--5---14~~-|
A|----------------------------------------------------------------------|
E|----------------------------------------------------------------------|

 [Solo]  C Gm7 Dm C
E|----------------------------------------------------------------------|
B|----------------------------------------------------------------------|
G|----------------------------------------------------------------------|
D|--14-14-14-14-14-14---5~~----15-15-15-15-15-15---8~-7----15--10-~~----|
A|----------------------------------------------------------------------|
E|----------------------------------------------------------------------|

C            Gm
Venha o teu reino
      Dm             C
Seja feita a tua vontade

         Em         G
Minha vontade já deixei

0 comentarios

    mostrar más comentarios

    ¿Conseguiste tocar?

    78tocaron0aún no

    ¡Graba un vídeo tocando Teus Sonhos y envianoslo!

    00:00 / 00:00
    outros vídeos desta música
    repetirqualidadeAutomático
    Outro vídeos desta música
      00:00 / 00:00
      OK