Cifra Club

Aprenda

Vento Impetuoso

Fernandinho

Tablatura: Principal (guitarra)
tono: A
[Intro] F#  A#m  F#  C#

(Riff)
   
E|----------------------------------------------------------------|
B|----------------------------------------------------------------|
G|--------------------------------10h11-13-11-11/15-15-13-10------|
D|--6-8-8/11-6/8---8-10-10/11-------------------------------------|
A|-8--------------------------------------------------------------|
E|----------------------------------------------------------------|

C#        G#
Doce presença
    D#m      F#
Perfume suave
    G#
Eu Sei que estás
        F#
Entre nós
        C#
És bem vindo
        G#
Fostes derramado
D#m               F#
Vem reinar entre nós
D#m            F#
Habitar entre nós  

( D#m  G# )

A#m
Vento impetuoso
F#
Sopra sobre nós
C#
Como em pentecostes
G#
Venha aqui reinar

D#m
Vento impetuoso
A#m
Sopra sobre nós
C#
Como em pentecostes
G#
Venha aqui reinar

[Solo] A#m  F#  C#  G#  D#m  A#m  C#  G#

E|-----------------------------------------------------------------|
B|-----------------------------------------------------------------|
G|-10-13-15-15-15-15-13-13-13--13----10-13-15-15-15-15-13-13-13-13-|
D|-----------------------------------------------------------------|
A|-----------------------------------------------------------------|
E|-----------------------------------------------------------------|

E|-----------------------------------------------------------------|
B|-----------------------------------------------------------------|
G|-10-13-15-15-15-15-13-13-13--13----10-10/8-----------------------|
D|-----------------------------------------------------------------|
A|-----------------------------------------------------------------|
E|-----------------------------------------------------------------|
Composição de Fernandinho
2.209 reproducciones
    • ½ Tono
    • A
    • Bb
    • B
    • C
    • Db
    • D
    • Eb
    • E
    • F
    • F#
    • G
    • Ab
  • Adicionar à lista

    0 comentarios

    Ver todos os comentários
    00:00 / 00:00
    outros vídeos desta música
    repetir qualidade Automático
    Outros vídeos desta música
    00:00 / 00:00
    Automático
    OK