Cifra Club

A Desconhecida

Fernando Mendes

Tablatura: Principal
reproducciones 259
Tono: D
Tom: D
Introdução:

E|-----5-----5-----------5-----5-----------5-----5-----------5---------|
B|---7-----7-----------7-----7-----------7-----7-----7-----7-----------|
G|-7-----7-----7-----6-----6-----6-----5-----5-----5-----4------4-6--7-|
D|---------------------------------------------------------------------|
A|---------------------------------------------------------------------|
E|---------------------------------------------------------------------|

E|-----7-----7-----------7-----7-----------7-----7-----------7-----7-----|
B|---8-----8-----8-----8-----8-----8-----8-----8-----8-----8-----8-----8-|
G|-9-----9-----9-----8-----8-----8-----7-----7-----7-----6-----6-----6---|
D|-----------------------------------------------------------------------|
A|-----------------------------------------------------------------------|
E|-----------------------------------------------------------------------|

E|-----3-----3----------5-----5---|
B|---2-----2----------5-----5-----|
G|-2-----2-----2----6-----6-----6-|
D|--------------------------------|
A|--------------------------------|
E|--------------------------------|

Dedilhado base: P  i  ma   P  i  ma   P  i

D                F#m         Em              A7
  Numa tarde tão linda de sol ela me apareceu
D                    F#m                    Em     A7
  Com um sorriso tão triste um olhar tão profundo já sofreu
D                 F#m           Em            A7
  Suas mãos tão pequenas e frias sua voz tropeçava também
D                F#m               Em               A7
  Me falava da infância de lágrimas  nunca teve ninguém

      D                F#m              Em    A7
Nunca teve amor não sentiu o calor de alguém
      D              F#m               Em         A7
Nem sequer ouviu a palavra carinho, seu ninho não resistiu

D        F#m                    Em   A7             D
  Sinceramente eu chorei de tristeza ao ouvir tanta coisa
              F#m             Em    A7
Que a vida oferece e a gente padece sem querer

D           F#m             Em                A7
  Depois de tudo o que eu vi não consigo esquecer
D               F#m          Em               A7
  Ela me disse adeus e se foi nem seu nome eu sei dizer

D             F#m                Em   A7
  De onde ela veio, pra onde ela vai, oh! oh!
D             F#m                Em A7    D
  De onde ela veio, pra onde ela vai  não sei dizer
Interlúdio:
     D            F#m               Em            A7
E|-5------5------9-------9---------7-----7-------5-----5-----|
B|---7-----7-------10------10--------8-----8-------8-----8---|
G|-----7-----7--------11------11-------9-----9-------6-----6-| 2X
D|-----------------------------------------------------------|
A|-----------------------------------------------------------|
E|-----------------------------------------------------------|


      D                F#m              Em    A7
Nunca teve amor não sentiu o calor de alguém
      D              F#m                Em        A7
Nem sequer ouviu a palavra carinho, seu ninho não resistiu

D        F#m                    Em   A7             D
  Sinceramente eu chorei de tristeza ao ouvir tanta coisa
              F#m             Em    A7
Que a vida oferece e a gente padece sem querer

D           F#m             Em                  A7
  Depois de tudo o que eu vi  não consigo esquecer
D               F#m          Em                 A7
  Ela me disse adeus e se foi  nem seu nome eu sei dizer

D             F#m                Em   A7
  De onde ela veio, pra onde ela vai, oh! oh!
D             F#m                Em A7        D
  De onde ela veio, pra onde ela vai  não sei dizer

     D        F#m        Em       A7               D
E|-5----5----9----9-----7---7----5---5---|-------5----|
B|--7----7----10---10----8---8----8---8--|-------7----|
G|---7----7-----11---11---9---9----6---6-|:2X----7----| 
D|---------------------------------------|------------|
A|---------------------------------------|------------|
E|---------------------------------------|------------|
Acordes para:
    Colaboración y revision:
    • Eduardo Silva
    • Gilvan Santiago

    0 comentarios

      mostrar más comentarios

      ¿Conseguiste tocar?

      16tocaron0aún no

      ¡Graba un vídeo tocando A Desconhecida y envianoslo!

      00:00 / 00:00
      outros vídeos desta música
      repetirqualidadeautomática
      Outro vídeos desta música
        00:00 / 00:00
        automática
        OK