Cifra Club

Bobeia Pra Ver

Fernando e Sorocaba

Tablatura: Principal (guitarra)
Tono: C
C             G
Ei, você, que acha
                   Dm
Que eu sou louco, sou safado,
              F
Eu tava meio bebo,
             C
Tava meio emocionado,
                G    Dm
Mas eu sou um anjo, anjo
F
Bobeia pra ver
Que eu te faço um estrago

E|------------------------------------------------------------------------------| 
B|-8--8--8--------8--8--8---------8--8--8--------8--8--8------------------------| 
G|----------5--5------------5--4-----------5--3-----------5--2------------------| 
D|--------------------------------------------------------------0-----0----0----| 
A|-----------------------------------------------------------------4----4-------| 
E|------------------------------------------------------------------------------| 


E|------------------------------------------------------------------------------| 
B|------------------------------------------------------------------------------| 
G|--------------------5-----5~--------------------------------------------------| 
D|-0--2--3h0--3--5/7-----7------------------------------------------------------| 
A|------------------------------------------------------------------------------| 
E|------------------------------------------------------------------------------| 

E|------------------------------------------------------------------------------| 
B|-8--8--8--------8--8--8---------8--8--8---------------------------------------| 
G|----------5--5------------5--4-----------5--2~--------------------------------| 
D|------------------------------------------------------------------------------| 
A|------------------------------------------------------------------------------| 
E|------------------------------------------------------------------------------|

Base 2x: C  G  Dm  F

 C          G                 Dm
Só porque, eu te puxei pelo braço,
                F
Agarrei no seu cabelo
            C
E te dei um abraço
       G                     Dm
   E falei, baixinho no seu ouvidinho,     D|---------|
              F                  C        A|---3-2---|
Vamo lá para casa que eu faço gostosinho
 Am        G       F
Tava tonto demais, nem percebi
 Am         G             F
As amigas dela estão rindo será que é de mim?
reproducciones 96
Acordes para:
    Compositor: Caco Nogueira / Sorocaba Colaboración y revision:
    • Marquinhos Sene
    • Felipe Sousa
    • Cacio Arruda

    0 comentarios

    mostrar más comentarios

    ¿Conseguiste tocar?

    9 tocaron 0 aún no

    ¡Graba un vídeo tocando Bobeia Pra Ver y envianoslo!

    00:00 / 00:00
    outros vídeos desta música
    repetir qualidade Automático
    Outros vídeos desta música
    00:00 / 00:00
    Automático
    OK