Cifra Club

Country Roads

Fernando e Sorocaba

Cifrado: Principal (guitarra y guitarra eléctrica)
tono: G
            G           D           Em          C

E|--------------------------------------------------------|
B|-----------------------------------------3--5-----------|
G|--0--2--4-----2--0--2-----4--2--0-----4-----------------|
D|--------------------------------------------------------|
A|--------------------------------------------------------|
E|--------------------------------------------------------|
              G              D              C           G

E|--------------------------------------------------------|
B|--5--3-3------------------------------------------------|
G|----------4-----2--0--2--4-----2--0--2--0-----2--0--0---|
D|--------------------------------------------------------|
A|--------------------------------------------------------|
E|--------------------------------------------------------|

G             D
Country Roads, take me home
     Em      C
To the place I belong
    G
West Virginia
     D        C
Mountain mamma, oh take me home
    G
Country roads

G        Em
Almost heaven, West Virginia
D            C      G
Blue Ridge Mountains, Shanandoa River
G              Em
Life is old there, older than the trees
D                C         G
Younger than the mountains, blowing like a breeze

G             D
Country Roads, take me home
     Em      C
To the place I belong
    G
West Virginia
     D        C
Mountain mamma, oh take me home
    G
Country roads

( G  D  Em  C  G  D  Cm  G )

G
Rollin´ down a backwoods
     D
Tennessee by way
Em        C
One arm on the wheel
       G         D
Holding my lover with the other
 Em             C
A Sweet, soft southern thrill
       Em
Worked hard all week
          D
Got a little jingle
   Em          C
On a Tennessee Saturday night
         G
Couldn´t feel better
    D         Cm         G
I´m together with my Dixieland Delight

    D
Spend my dollar
      Em                    C
Parkin' a holler neath the mountain moonlight
       Em
Hold her up tight
          D
Make a little lovin'
             Em               C
A little turtle-dovin´ on a Mason-Dixon night
     Em         C
Fits my life, oh so right
     Cm       G
With my Dixieland Delight
     Cm       G
With my Dixieland Delight

( D#  F  G  F  G  A )
( A  E  F#m  D  A  E  F#m  D  F#m  E  F#m  D  A  E  F G  A  FG  A )

    E
Spend my dollar
      F#m                 D
Parkin' a holler neath the mountain moonlight
     A
Hold her up tight
        E
Make a little lovin'
             F#m              D
A little turtle-dovin´ on a Mason-Dixon night
     F#m          D
Fits my life, oh so right
     Dm        A
With my Dixieland Delight

( A  E  F#m  D  A  E  F#m  D  F#m  E  F#m  D  A  E  FG  A  FG  A )
Compositor no encontrado.
Colaboración y revisión:
  • Glaydon Silva
  • Gustavo Ferreira
  • Paulo Ferrarini
345 vistas
    • ½ Tono
    • A
    • Bb
    • B
    • C
    • Db
    • D
    • Eb
    • E
    • F
    • F#
    • G
    • Ab
  • Agregar a la lista

    0 comentarios

    Ver todos los comentarios
    00:00 / 00:00
    Otros videos de esta canción
    Repetir Calidad Automático
    Otros videos de esta canción
    00:00 / 00:00
    Automático
    OK