Cifra Club

Volta Lá Pro Seu Lugar

Fernando e Sorocaba

Cifrado: Principal (guitarra y guitarra eléctrica)
tono: D
(intro) D

         G                F#/D          A            G           F#/D         D     D4

E|-----------------------------------------------------------2-2/3-------------|
B|----0----------3----------0------------0---------3----------3------3---------|
G|----2--2-------2---2-------2--2---------2--2------2----2-----2----------2----|
D|---0---0------0----0------2----2-------0----0----0------0---0-----0------0---|
A|-----------------------0------0----------------------------------------------|
E|--3-----3----2-----2------------2--3-------3--2---------2--------------------|

             G
Volta lá pro seu lugar
          F#/D
Eu não quero mais você
            A
Minha vida foi te amar
           G
Mas, não vou te enganar
    A      D   D4
Também posso te esquecer
             G
Volta lá pro seu lugar
            F#/D
Eu não quero mais sofrer
         A
E no jogo da paixão
       G
Mando no meu coração
    A     D  D4
Não preciso de você

(solo)

E|-------------------------7----------5----3---------------------------------|
B|------------------------------------------------------------------7--5---3-|
G|------------------4-4--5/7----------5----4---------------------------------|
D|----------------------------------------------------------5-5---5/7--5---4-|
A|----4/5--4/5--4/5----------------------------4/5-4/5-4/5-------------------|
E|---------------------------------------------------------------------------|

E|-----------------------------------------------------------------------------------------|
B|--3---5---7---8---7---5---7--8---12---10---8---7--5--5/7---5---3------------8--7---5---3-|
G|-----------------------------------------------------------------------------------------|
D|--4---5---7---9---7---5---7--9---12---10---9---7--5--5/7---5---4----------7/9--7---5---4-|
A|--------------------------------------------------------------------7---9----------------|
E|-----------------------------------------------------------------------------------------|

           G  A
Quase que eu acreditei
         D
Em tudo que me falou
            A
Se faltou com a verdade
        G
Diga com sinceridade
           D    D4
Que foi você quem errou

         G    A
Quase que eu acreditei
         D
Nas promessas de amor
         A
Vou sair da sua vida
             G
Por favor, não me persiga
        A  D  D4
Eu não quero essa dor

(refrão)
 G
Volta lá pro seu lugar
          D
Eu não quero mais você
            A
Minha vida foi te amar
           G
Mas, não vou te enganar
    A      D   D4
Também posso te esquecer
             G
Volta lá pro seu lugar
            D
Eu não quero mais sofrer
         A
E no jogo da paixão
       G
Mando no meu coração
    A     D  D4
Não preciso de  você

(solo) G  D  A  G  A  D  G  D

 G   A
Quase que eu acreditei
         D
Nas promessas de amor
         A
Vou sair da sua vida
             G
Por favor, não me persiga
        A  D  D4
Eu não quero essa dor.

(refrão)

(repete 2x essa parte)

          G   A
E no jogo da paixão
        D
Mando no meu coração
        A
Não preciso de você
Composición de Sorocaba
Colaboración y revisión:
52 vistas
  • Simplificar cifrado
    • ½ Tono
    • A
    • Bb
    • B
    • C
    • Db
    • D
    • Eb
    • E
    • F
    • F#
    • G
    • Ab
  • Agregar a la lista

    0 comentarios

    Ver todos los comentarios

    ¿Lograste tocar?

    3 Tocaron 1 Aún no

    ¡Graba un video tocando Volta Lá Pro Seu Lugar y envíanoslo!

    00:00 / 00:00
    Outros vídeos desta música
    Repetir Calidad Automático
    Outros vídeos desta música
    00:00 / 00:00
    Automático
    OK