Cifra Club

American Cliche

Filter

Cifrado: Principal (guitarra y guitarra eléctrica)
Selo Cifra Club: esta cifra foi revisada para atender aos critérios oficiais da nossa Equipe de Qualidade.
tono: Ab
to give it a little more bass.

e)-------------------------------------------------|
b)-------------------------------------------------|
g)-------------------------------------------------|
d)-------------------------------------------------|
A)-------------------------------------------------|
E)--0030400000304666--0030400000304666-------------|

 ok so this is the intro. play it twice. it may even be bass but if you only have a
6-string then this should due.

e)---------------------------------------|
b)---------------------------------------|
g)---------------------------------------|
d)--0030400000304666--0030400000304666---|
A)--0030400000304666--0030400000304666---|
E)--0030400000304666--0030400000304666---|


 and then at the end when he says "cause every time you make yourself the reason is
time you make yourself beaten yeah" try adding a

e)------------|
b)------------|
g)------------|
d)------------|
A)-1-1-1-1----|
E)------------|

 that is the only intro to the chorus

e)-chorus---------------------------|play-twice-on-first-time
b)----------------------------------|
g)----------------------------------|
d)--0------6-p00-5-p0-3-------------|
A)--0------6-p00-5-p0-3-------------|
E)--0------6-p00-5-p0-3-------------|

e)-chorus-outro-------|
b)--------------------|
g)--------------------|
d)--0030400000304666--|
A)--0030400000304666--|
E)--0030400000304666--|


e)-----------------------------------------------------------|
b)-----------------------------------------------------------|
g)-----------------------------------------------------------|
d)-5-5-5-5-5-5-5-5-----------6-8-8-8-6-6-6-6-5-5-5-5-4-4-4-4-|
A)-5-5-5-5-5-5-5-5-8-8-8-8-8-6-6-6-6-6-6-6-6-5-5-5-5-4-4-4-4-|
E)-5-5-5-5-5-5-5-5-6-6-6-6-6-6-6-6-6-6-6-6-6-5-5-5-5-4-4-4-4-|

 this is the part of the song where he sings "you want a way to be the same" and you
three times. then it goes back to harmonics (which again i dont have) and then the main
from the verses. i think that the song is right but it may have a few problems. oh well. 
song. it deserves about 20 stars.
Otros videos de esta canción
    418 exhibiciones
      • ½ Tono
      • A
      • Bb
      • B
      • C
      • Db
      • D
      • Eb
      • E
      • F
      • F#
      • G
      • Ab
    • Agregar a la lista

    Afinación de cifrado

    Afinador online

      OK