Cifra Club

Missing

Filter

Cifrado: Principal (guitarra y guitarra eléctrica)
Selo Cifra Club: esta cifra foi revisada para atender aos critérios oficiais da nossa Equipe de Qualidade.
tono: G
E|----------------------------------------------------|
B|----------------------------------------------------|
G|----------------------------------------------------|
D|-----0----0-----0-----0-----0-----0-----0-----0-----|
A|---0----0-----0-----0-----0-----0-----0-----0-------|
E|-0----0-----0-----2----/5-----5-----5-----3---------|

E|----------------------------------------------------|
B|----------------------------------------------------|
G|----------------------------------------------------|
D|-----0----0-----0-----0-----0-----0-----0-----0-----|
A|---0----0-----0-----0-----0-----0-----0-----0-------|
E|-0----0-----0-----2----/5-----5----/8-----8---------|


****Chorus****

E|----------------------------------------------------|
B|----------------------------------------------------|
G|----------------------------------------------------|
D|-0--0--0-0---2--2--2-2-/-5--5--5-5------------------|
A|-0--0--0-0---2--2--2-2-/-5--5--5-5------------------|
E|-0--0--0-0---2--2--2-2-/-5--5--5-5------------------|


Guitar 2 joins chorus at 3:17 with

E|----------------------------------------------------|
B|----------------------------------------------------|
G|--7-7-7-7-7--9-9-9-9-9--12-12-12-12-12--------------|
D|--7-7-7-7-7--9-9-9-9-9--12-12-12-12-12--------------|
A|--5-5-5-5-5--7-7-7-7-7--10-10-10-10-10--------------|
E|--5-5-5-5-5--7-7-7-7-7--10-10-10-10-10--------------|

Guitar 3 joins at 3:51 with

E|-----10--9--5---------------------------------------|
B|------x--x--x--8------------------------------------|
G|--7---7--6--2--x------------------------------------|
D|--x------------5------------------------------------|
A|--5-------------------------------------------------|
E|----------------------------------------------------|
Otros videos de esta canción
    16 exhibiciones
      • ½ Tono
      • A
      • Bb
      • B
      • C
      • Db
      • D
      • Eb
      • E
      • F
      • F#
      • G
      • Ab
    • Agregar a la lista

    Afinación de cifrado

    Afinador online

      OK