Cifra Club

The Best Things

Filter

Cifrado: Versão 3 (guitarra y guitarra eléctrica)
Selo Cifra Club: esta cifra foi revisada para atender aos critérios oficiais da nossa Equipe de Qualidade.
tono: C#m
Verses 1 & 2: (Play 4 times)
E|-------------------|--------------------------|
B|-------------------|--------------------------|
G|-------------------|--------------------------|
D|-------------------|-----------10-10-10-10-10-|
A|-5-5-5-------------|-5-5-3-1-1/8--8--8--8--8--|
E|-5-5-5-------------|-5-5-3-1-1/8--8--8--8--8--|

Chorus 1: (Play as many times as required)
E|-----------------|-------------------------|--------------------|
B|-----------------|-------------------------|--------------------|
G|-----------------|-------------------------|--------------------|
D|-----------------|-------------------------|--------------------|
A|-9-9-9-9-9-9-9-9-|-9--9--9--9--9--9--9--9--|-10-10-10-8-8-8-8-8-|
E|-0-0-0-0-0-0-0-0-|-10-10-10-10-10-10-10-10-|-8--8--8--8-8-8-8-8-|

E|-----------------|
B|-----------------|
G|-----------------|
D|-----------------|
|-8-8-8-6-6-6-6-6-|
|-6-6-6-6-6-6-6-6-|


Bridge:
E|-------------------|-------------------|-------------------|-------|
B|---2-3-5-3-5-2-3-2-|---2-3-5-3-5-2-3-2-|---2-3-5-3-5-2-3-2-|-------|
G|-------------------|-------------------|-------------------|-------|
D|-------------------|-------------------|-------------------|-------|
A|-------------------|-------------------|-------------------|-------|
E|-5-----------------|-5-----------------|-5-----------------|-5-----|


The Chorus is played differently towards the end:
Chorus 2: (Play twice)
E|-----------------|-----------------|-----------------|
B|-----------------|-----------------|-----------------|
G|-----------------|-----------------|-----------------|
D|-----------------|-----------------|-----------------|
|-0-0-0-0-0-0-0-0-|-4-4-4-4-4-4-4-4-|-5-5-5-5-5-5-5-5-|
|-0-0-0-0-0-0-0-0-|-4-4-4-4-4-4-4-4-|-5-5-5-5-5-5-5-5-|

E|-----------------|
B|-----------------|
G|-----------------|
D|-----------------|
|-6-6-6-6-6-6-6-6-|
|-6-6-6-6-6-6-6-6-|


Chorus 3:
E|------|------|------|------|------|------|------|------|
B|------|------|------|------|------|------|------|------|
G|------|------|------|------|------|------|------|------|
D|------|------|------|------|------|------|------|------|
A|------|-9----|------|-8--6-|------|-9----|------|-8--6-|
E|-12---|------|-8----|------|-12---|------|-8----|------|
00:00 / 00:00
Otros videos de esta canción
Repetir
Otros videos de esta canción
    • ½ Tono
    • Am
    • Bbm
    • Bm
    • Cm
    • C#m
    • Dm
    • Ebm
    • Em
    • Fm
    • F#m
    • Gm
    • G#m
  • Agregar a la lista

Afinación de cifrado

Afinador online

    00:00 / 00:00
    OK