Cifra Club

Whats Next

Filter

Cifrado: Principal (guitarra y guitarra eléctrica)
Selo Cifra Club: esta cifra foi revisada para atender aos critérios oficiais da nossa Equipe de Qualidade.
tono: Dm
Intro/Main Riff
*note* those are ten's, twelve's, and thirteen's.
*note* the (3)'s is natural harmonics, I strum them like a pinched harmonic 
to get that weird tone with it.

E|-------------------------------------(3)(3)(3)(3)-|
B|-------------------------------------(3)(3)(3)(3)-|
G|-------------------------------------(3)(3)(3)(3)-|
D|-0-10-12--0-13-12--0-10-12--0-13-12--(3)(3)(3)(3)-|
A|-0-10-12--0-13-12--0-10-12--0-13-12---------------|
E|-0-10-12--0-13-12--0-10-12--0-13-12---------------|

E|-----------------------------------------------|
B|-----------------------------------------------|
G|-----------------------------------------------|
D|-0-10-12--0-13-12--0-10-12--0-13-12--0-12-0-12-|
A|-0-10-12--0-13-12--0-10-12--0-13-12--0-12-0-12-|
E|-0-10-12--0-13-12--0-10-12--0-13-12--0-12-0-12-|

Verse #1
E|---------------------------------|
B|---------------------------------|
G|---------------------------------|
D|-0-0-0-0-1-x-x-x-x-x-x-x-x-x-x-x-| 3x
A|-0-0-0-0-1-x-x-x-x-x-x-x-x-x-x-x-|
D|-0-0-0-0-1-x-x-x-x-x-x-x-x-x-x-x-|

E|---------------------------------|
B|---------------------------------|
G|---------------------------------|
D|-0-0-0-0-1-x-x-x-x-x-x-3-x-3-x-1-| 1x
A|-0-0-0-0-1-x-x-x-x-x-x-3-x-3-x-1-|
D|-0-0-0-0-1-x-x-x-x-x-x-3-x-3-x-1-|


Intro/Main Riff



Verse #2
E|---------------------------------|
B|---------------------------------|
G|---------------------------------|
D|-0-0-0-0-1-x-x-x-x-x-x-x-x-x-x-x-| 1x
A|-0-0-0-0-1-x-x-x-x-x-x-x-x-x-x-x-|
D|-0-0-0-0-1-x-x-x-x-x-x-x-x-x-x-x-|

E|---------------------------------|
B|---------------------------------|
G|---------------------------------|
D|-0-0-0-0-1-x-x-x-x-x-x-3-x-2-x-1-| 1x
A|-0-0-0-0-1-x-x-x-x-x-x-3-x-2-x-1-|
D|-0-0-0-0-1-x-x-x-x-x-x-3-x-2-x-1-|

E|---------------------------------|
B|---------------------------------|
G|---------------------------------|
D|-0-0-0-0-1-x-x-x-x-x-x-x-x-x-x-x-| 1x
A|-0-0-0-0-1-x-x-x-x-x-x-x-x-x-x-x-|
D|-0-0-0-0-1-x-x-x-x-x-x-x-x-x-x-x-|

E|---------------------------------|
B|---------------------------------|
G|---------------------------------|
D|-0-0-0-0-1-x-x-x-x-x-x-1-x-2-x-3-| 1x
A|-0-0-0-0-1-x-x-x-x-x-x-1-x-2-x-3-|
D|-0-0-0-0-1-x-x-x-x-x-x-1-x-2-x-3-|
*Repeat all of 4 riffs*


Chorus  [2x]
E|------------------------------------------------------------------------------------|
B|------------------------------------------------------------------------------------|
G|-7-77---9-99---12-------------------------------------------------------------------|
D|-x-xx---x-xx---x-----5-5555-5555----12-121212-10-10101010----8-888-10-10101010-1010-|
A|-5-55---7-77---10----3-3333-3333-xx-10-101010-10-10101010-xx-8-888-8--8-8-8-8--8-8--|
E|-0-00-0-0-00-0-0--00-3-3333-3333-xx-10-101010-10-10101010-xx-8-888-8--8-8-8-8--8-8--|



Intro/Main

Verse #2

Chorus

Pre-Bridge thing
E|------(3)--------------------|
B|------(3)--------------------|
G|------(3)-| W/whammy dive bomb-|
D|-2r--------------------------|
A|-0r--------------------------|
E|-----------------------------|

Bridge
E|---------------------------------------------------|
B|-10-11-10-10-10-10--10-11-10-10-10-10--13-13-13-13-|
G|-14-14-14-14-14-14--14-14-14-14-14-14--14-14-14-14-|
D|---------------------------------------------------|
A|---------------------------------------------------|
E|---------------------------------------------------|

E|---------------------------------------------------|
B|-10-11-10-10-10-10--10-11-10-10-10-10--11-11-11-11-|
G|-14-14-14-14-14-14--14-14-14-14-14-14--14-14-14-14-|
D|---------------------------------------------------|
A|---------------------------------------------------|
E|---------------------------------------------------|

Chorus

Intro/Main


During the end of the last Intro/Main play this lead
*Tremolo Picking* W/ wah wah
E|-------------------------------------------------------------------------22-22-22-22|
B|-18-17-18-17-18-17-18-17-18-17-18-17-18-17-18-17-18-17-18-17-18-17-18-17------------|
G|------------------------------------------------------------------------------------|
D|------------------------------------------------------------------------------------|
A|------------------------------------------------------------------------------------|
E|------------------------------------------------------------------------------------|
Otros videos de esta canción
      • ½ Tono
      • Am
      • Bbm
      • Bm
      • Cm
      • C#m
      • Dm
      • Ebm
      • Em
      • Fm
      • F#m
      • Gm
      • G#m
    • Agregar a la lista

    Afinación de cifrado

    Afinador online

      OK