Cifra Club

Without You Here

Finch

Cifrado: Principal (guitarra y guitarra eléctrica)
tono: F
(intro e versos)

E|-----------------------------------------------------|
B|-----------------------------------------------------|
G|-7--------7--------7--------8------------------------|
D|-x--------x-----------------x------------------------|
A|-6--------3-----------------6------------------------|
E|-------------------3---------------------------------|

E|------------------------------------|
B|------------------------------------|
G|---9------10-----12------15---------|
D|---x-------x------x-------x---------|
A|---6-------8-----10------13---------|
E|------------------------------------|

(refrão)
E|-----------------------------------------------------|
B|-----------------------------------------------------|
G|----------------8-8-8-8-8-8----3-3-3-3-3-3-----------|
D|-5-5-5-5-5-5----8-8-8-8-8-8----3-3-3-3-3-3-----------|
A|-5-5-5-5-5-5----6-6-6-6-6-6----1-1-1-1-1-1-----------|
E|-3-3-3-3-3-3-----------------------------------------|

E|----------------------------|
B|----------------------------|
G|----------------------------|
D|-3-3-3-3-3-3----------------|
A|-3-3-3-3-3-3----------------|
E|-1-1-1-1-1-1----------------|

(intro)

(outro)
E|----------------------------------------------------|
B|----------------------------------------------------|
G|-8-8-8-8-8-8-8-8-8-8-8-8----------------------------|
D|-8-8-8-8-8-8-8-8-8-8-8-8----------------------------|
A|-6-6-6-6-6-6-6-6-6-6-6-6----------------------------|
E|----------------------------------------------------|
 Am I loosing you, am i loosing You.....

E|----------------------------------------------------|
B|----------------------------------------------------|
G|-3-3-3-3-3-3-3-3-3-3-3-3-3-3----0-0-0-0-0-0-0-0-0-0-|
D|-3-3-3-3-3-3-3-3-3-3-3-3-3-3----1-1-1-1-1-1-1-1-1-1-|
A|-1-1-1-1-1-1-1-1-1-1-1-1-1-1----1-1-1-1-1-1-1-1-1-1-|
E|----------------------------------------------------|

E|----------------------------------------------------|
B|----------------------------------------------------|
G|----------------------------8-8-8-8-8-8-8-8-8-8-8-8-|
D|-5-5-5-5-5-5-5-5-5-5-5-5----8-8-8-8-8-8-8-8-8-8-8-8-|
A|-5-5-5-5-5-5-5-5-5-5-5-5----6-6-6-6-6-6-6-6-6-6-6-6-|
E|-3-3-3-3-3-3-3-3-3-3-3-3----------------------------|

The storm is bad tonight
so how could i
awake without you here
your pictures on the wall
you haven't called
but i'll wait for you
to her own reflection she said
i will hold on
to her own reflection she said
i will be stong
the storm is letting up
but it won't die
if you weren't wrong was i?
your picture still remains
but i wonder...are you still the same?
to her own relfection she said
i will hold on
to her own reflection she said
i will be strong
am i losing you? am i losing you?
i've waited..i've waited till its over..its over now
i've waited..i've waited till its over..its over now
i've waited..i've wiated till its over..its over now
i've waited..i've waited till its over..its over now
to her own reflection she said
i will hold on
to her own reflection she said
00:00 / 00:00
Otros videos de esta canción
Repetir
Otros videos de esta canción
Composición de Finch / Nate Barcalow
Colaboración y revisión:
  • Zenky
  • Giulia Bianchini
32 vistas
    • ½ Tono
    • A
    • Bb
    • B
    • C
    • Db
    • D
    • Eb
    • E
    • F
    • F#
    • G
    • Ab
  • Agregar a la lista

    0 comentarios

    Ver todos los comentarios
    00:00 / 00:00
    OK