Cifra Club

Aprenda

Buscando Angeles

Finde

Tablatura: Principal (guitarra)
tono: E
INTRO
Guitarra 1

e|-x-x-x---x-x---x-x-x--x-x---x-x-x—-x-x---x-x-x—-x-x-|
b|-x-x-x---x-x---x-x-x--x-x---x-x-x—-x-x---x-x-x—-x-x-|
g|-x-x-x---x-x---x-x-x--x-x---x-x-x—-x-x---x-x-x—-x-x-|
d|-4-4-4---4-4---4-4-4--4-4---x-x-x—-x-x---x-x-x—-x-x-|
a|-2-2-2---2-2---2-2-2--2-2---5-5-5—-5-5---3-3-3—-3-3-|
e|-x-x-x---x-x---x-x-x--x-x---3-3-3—-3-3---5-5-5—-5-5-|

Guitarra 2

e|---------------|
b|---------------|
g|---------------| (x4)
d|---------------|
a|-2-2-5-4-0-2-2-|
e|---------------|


En el numero 5 y 4 lleva un efecto pellizcando la cuerda

e|------------------|
b|------------------|
g|------------------|  (x3)
d|------------------|
a|---5(e)-4(e)-0----|
e|-3-------------3--|

La ultima escala es asi

e|---------------|
b|---------------|
g|---------------|  Se Toca Rapido
d|---------------|
a|---2-0-5-4-0-2-|
e|-3-------------|

e|-x-x-------------x-x--------------|
b|-x-x-------------x-x--------------|
g|-x-x-11-11-11-9~-x-x-11-11-11-----|
d|-x-x-------------x-x----------12~-|
a|-5-5-------------3-3--------------|
e|-3-3-------------5-5--------------|

e|-x-x------x-x-----|
b|-x-x-10~--x-x-10~-|
g|-x-x------x-x-----|   Riff 2
d|-x-x------x-x-----|
a|-9-9------9-9-----|
e|-7-7------7-7-----|

 *     -P.M-     -P.M-     *|
e|-x-x-x-----x-x-x-----x-x-x-----x-x-x--------------|
b|-x-x-x-10~-x-x-x-10~-x-x-x-10~-x-x-x-10~----------|
g|-x-x-x-----x-x-x-----x-x-x-----x-x-x----   Riff 3-|
d|-x-x-x-----x-x-x-----x-x-x-----x-x-x--------------|
a|-9-9-9-----9-9-9-----9-9-9-----9-9-9--------------|
e|-7-7-7-----7-7-7-----7-7-7-----7-7-7--------------|

e|-x-x-------------x-x--------------|
b|-x-x-------------x-x--------------|
g|-x-x-11-11-11-9~-x-x-11-11-11-----|
d|-x-x-------------x-x----------12~-|
a|-5-5-------------3-3--------------|
e|-3-3-------------5-5--------------|

e|-x-x------x-x-----|
b|-x-x-10~--x-x-10~-|
g|-x-x------x-x-----|
d|-x-x------x-x-----|
a|-9-9------9-9-----|
e|-7-7------7-7-----|

*     -P.M-     -P.M-     *|
e|-x-x-x-----x-x-x-----x-x-x-----x-x-x-----|
b|-x-x-x-10~-x-x-x-10~-x-x-x-10~-x-x-x-10~-|
g|-x-x-x-----x-x-x-----x-x-x-----x-x-x-----|
d|-x-x-x-----x-x-x-----x-x-x-----x-x-x-----|
a|-9-9-9-----9-9-9-----9-9-9-----9-9-9-----|
e|-7-7-7-----7-7-7-----7-7-7-----7-7-7-----|

e|-x-x-------------x-x------------------|
b|-x-x-------------x-x------------------|
g|-x-x-------------x-x------------------|
d|-x-x-------------x-x------------------|
a|-5-5-5-5-5-5/7-7-3-3-12-12-12-12-10-9-|
e|-3-3-------------5-5------------------|

e|-------------------22-22-22-22-22-22-17-17~~-|
b|---------------------------------------------|
g|-14/19-19-19-19-19---------------------------|
d|---------------------------------------------|
a|---------------------------------------------|
e|---------------------------------------------|


Empieza el verso y el arpegio es asi

  ---G*--- --A*--  --B*-- -D*- -B*-
e|-5-5-5-5-5-5-5-5-2-2-2-2-5-5-2-2-|
b|-x-x-x-x-x-x-x-x-x-x-x-x-x-x-x-x-|
g|-x-x-x-x-x-x-x-x-x-x-x-x-x-x-x-x-|    Riff 1
d|-x-x-x-x-x-x-x-x-x-x-x-x-x-x-x-x-|
a|-x-x-x-x-x-x-x-x-2-2-2-2-5-5-2-2-|
e|-3-3-3-3-5-5-5-5-x-x-x-x-x-x-x-x-|


      Tocar Riff 1
Te escondes y una sombra va
Cubriendo tu interior.
Ves las cosas que te evaden hoy

(Pre - Coro)
G5           A5             Riff 2 y 3
Donde iràs dejando atràs tu soledad?
G5              A5          Riff 2 y 3
No hay lugar te fugaràs sin marcha atràs

(Coro)
G5        A5           Riff 3
Puedes caer al zotano y perderlo todo
G5            A5               B5
Abre los ojos abre los ojos bien
G5            A5    D5
Y busca àngeles.

****Esta Parte Se Toca Con
El Riff 1 Junto con Esto****

G5                  A5
Sientes que ves una luz al fondo
B5               D5  B5
y un peligroso baúl
G5         A5             B5   D5  B5
Tan frágil tu oyes mi canciòn

(Pre - Coro)
G5           A5             Riff 2 y 3
Donde iràs dejando atràs tu soledad?
G5              A5          Riff 2 y 3
No hay lugar te fugaràs sin marcha atràs

(Coro)
G5        A5            Riff 3
Puedes caer al zotano y perderlo todo
G5            A5               B5
Abre los ojos abre los ojos bien
G5            A5    D5
Y busca àngeles.

e|----5------5------5------5---|
b|--3---3--3---3--3---3--3---3-|
g|-----------------------------|       Riff 4
d|-----------------------------|
a|-----------------------------|
e|-3------3------5------5------|

e|----5------5------5------5---|
b|--3---3--3---3--3---3--3---3-|
g|-----------------------------|       Riff 4
d|-----------------------------|
a|-2------2------4------4------|
e|-----------------------------|

(Bridge)
Riff 4 x3
Cerrè mis ojos una vez
Tu estabas ahì llorando… llorando

(Solo)

e|-------------------------------------------------|
b|-------------------------------------------------|
g|-------------------------------------------------|
d|-4-4-----7-7-0-0-4-4-----7-7-0-0-4-4-----7-7-0-0-|
a|-----5-5-------------5-5-------------5-5---------|
e|-------------------------------------------------|

e|---------------------------------------|
b|---------------------------------------|
g|---------------------------------------|   x2
d|-4-4-----7-7-0-0-7-4-0-0-7-4-0-0-7---4-|
a|-----5-5---------------------------5---|
e|---------------------------------------|

(Coro)
G5        A5           Riff 3
Puedes caer al zotano y perderlo todo
G5            A5               B5
Abre los ojos abre los ojos bien
G5          A5    G5          A5    G5       A5      D5
Y busca àngeles, y busca angeles, y busca angeles…
Composição de Punkekito2d
53 reproducciones
    • ½ Tono
    • A
    • Bb
    • B
    • C
    • Db
    • D
    • Eb
    • E
    • F
    • F#
    • G
    • Ab
  • Adicionar à lista

    0 comentarios

    Ver todos os comentários

    ¿Conseguiste tocar?

    0 Tocaram 0 Ainda não

    Grave um vídeo tocando Buscando Angeles e nos envie!

    00:00 / 00:00
    outros vídeos desta música
    repetir qualidade Automático
    Outros vídeos desta música
    00:00 / 00:00
    Automático
    OK