Cifra Club

Contra la pared

Finde

Cifrado: Principal (guitarra y guitarra eléctrica)
tono: Em

[Intro]
   G         Em      B
E|-----------------------------------------|
B|---3-----3---0---0-----------------------|
G|---0-----0---0---0---4---4-----4----4----|
D|---------------------4---4-----4----4----|
A|-----0/2-------0---2---0---0/2---2-------|
E|-3---------0-----------------------------x2|

[Arpegeo canción]
   G       Em       B
E|-----------------------------------------|
B|---3---3---0---0-------------------------|
G|---0---0---0---0-----4----4-----4---4----|
D|---------------------4----4-----4---4----|
A|------------------2----2-----2----2------|
E|-3---3---0---0---------------------------|

   C                B7
E|----------------------------------------|
B|---1---1---1---1----0---0---0-----------|
G|---0---0---0---0----2---2---2-----------|
D|------------------1---1---1----1--0-----|
A|-3---3---3---3--------------------------|
E|----------------------------------------|



   G    Em    B
Atraveso la pared

   G      Em       B
y se llevaron su ropa

   G      Em       B
ya no se puede mover

    C              B7
el frio solo la agota


G         Em       B
No hay nada preparado

G         Em       B
si he de seguirte dime a donde

          G      Em      B
no importa mas no importa mas


     C
El tiempo se acaba

    B7
y no quiero alejarme de ti



[CORO]


G                   B7
Me tienes contra la pared
                 Em
me pega cada vez mas fuerte
               C
y el aire abandona tu cuerpo
    G
se va

                      B7
me tienes contra la pared
                    Em
no quiero dejar de verte
               C
y el aire abandona tu cuerpo
   B7
solo por un momento
C       G
no… no te vayas


[INTRO]


G         Em           B
Dicen que viste de negro

G       Em      B
Cuando ataca su feroz animal

G   Em      B
Hoy seras mi secreto

              C
En lo profundo del mar

     B
Donde nadie te aparte de mi


[CORO]

G                   B7
Me tienes contra la pared

                    Em
Me pega cada vez mas fuerte

               C
Y el aire abandona tu cuerpo

   G
Se va

                     B7
Me tienes contra la pared

                    Em
No quiero dejar de verte

                 C
Tenerte hasta el dia en que

 B7                   C
Los huesos se queden atrás

  Em                    G
Y a la luz de la luna llorar

  B7            Em      C
Laralaralala~~

G                  B7               Em
Dime que cuando te busque te voy a encontrar.
Composición de Finde/Single/Soy Luna
    • ½ Tono
    • Am
    • Bbm
    • Bm
    • Cm
    • C#m
    • Dm
    • Ebm
    • Em
    • Fm
    • F#m
    • Gm
    • G#m
  • Agregar a la lista

    0 comentarios

    Ver todos los comentarios

    ¿Lograste tocar?

    0 Tocaron 0 Aún no

    ¡Graba un video tocando Contra la pared y envíanoslo!

    00:00 / 00:00
    Outros vídeos desta música
    Repetir Calidad Automático
    Outros vídeos desta música
    00:00 / 00:00
    Automático
    OK