Cifra Club

Aprenda

Intoxicado Largo Camino A Casa

Finde

Tablatura: Principal (guitarra)
tono: D
INTRO
00:16
G|------------------------------------------------------|
D|-------------------4-5-4---------------------4-5-4----|
A|-2-2--2-2--2--2--7-------5-----------------7-------5--|x2
E|----------------------------3-3--3-3--3--3------------|

Verso
00:29
G|-----------------------------------------------------|
D|-------------------------------------5---------------|
A|-----------------7h9/109------------------7h9/109--|x4
E|-7-7--7-7--7--7------------3-3--3-3-----3------------|

Pre-coro
00:51
G|----------------------------------------------------|
D|----------------------------------------------------|
A|----------------------------------------------------|
E|-22--22--2-2-222--33-333-3-3-3--22--22--2-2-222--3~-|

Coro
01:02
G|--------------------------------------|   |---------------------|
D|--------------------------------------|   |---------------------|
A|-55555555-22222222-00000000-----------|x2 |---------------------|
E|----------------------------33333333--|   |-22--22--2-2-222--3~-|

Verso
01:32
G|----------------------------------------------------|
D|-------------------------------------5--------------|
A|-----------------7h9/109-----------------7h9/109--| x4
E|-7-7--7-7--7--7------------3-3--3-3----3------------|

Pre-coro
01:55
G|----------------------------------------------------|
D|----------------------------------------------------|
A|----------------------------------------------------|
E|-22--22--2-2-222--33-333-3-3-3--22--22--2-2-222--3~-|

Coro
02:06
G|-------------------------------------|
D|-------------------------------------|
A|-55555555-22222222-00000000----------|
E|----------------------------33333333-|

G|------------------------------------------|
D|------------------------------------------|
A|-55555555-22222222-00000000---------------|
E|----------------------------3333/15151515-|


Puente
02:30
G|--------------------------------|
D|--------------------------------|
A|--------------------------------|
E|-22--22--2-2-222--33-333-3-3-3--|


Aquí se repite el intro
02:36
G|------------------------------------------------------|
D|-------------------4-5-4---------------------4-5-4----|
A|-2-2--2-2--2--2--7-------5-----------------7-------5--| x4
E|----------------------------3-3--3-3--3--3------------|

02:59
G|-------------|
D|-------------|
A|-------------|
E|-55555555-3~-|

Coro
03:05
G|-------------------------------------|
D|-------------------------------------|
A|-55555555-22222222-00000000----------|
E|----------------------------33333333-|

G|---------------------------------------------|
D|---------------------------------------------|
A|-55555555-22222222-00000000------------------|
E|----------------------------3/15151515151515-|

Outro
03:29
G|----------------|
D|----------------|
A|----------------|
E|-55555555--3-3~-|

96 reproducciones
    • ½ Tono
    • A
    • Bb
    • B
    • C
    • Db
    • D
    • Eb
    • E
    • F
    • F#
    • G
    • Ab
  • Adicionar à lista

    0 comentarios

    Ver todos os comentários

    ¿Conseguiste tocar?

    0 Tocaram 0 Ainda não

    Grave um vídeo tocando Intoxicado Largo Camino A Casa e nos envie!

    00:00 / 00:00
    outros vídeos desta música
    repetir qualidade Automático
    Outros vídeos desta música
    00:00 / 00:00
    Automático
    OK