Cifra Club

Aprenda

No Que No

Finde

Tab de bajo: Principal
Intro

Inicia el arpegeo de la guitarra y luego se toca esto

G||-------------------------------------------------------------||
D||-------------------------------------------------------------||
A||-444-44-4-4-444-------------------------------222-22-2-2-222-||
E||----------------000-00-0-0-000-222-22-2-2-222----------------||

Verso

El primer verso no lleva bajo, en el segundo verso se toca esto

G||----------------------------------------------------||
D||----------------------------------------------------||
A||-44444-44444----------------------------------------||
E||-------------00000-00000-55555-55555-55555-55552222-||

Coro
G||--------------------------------------------------------------------||
D||--------------------------------------------------------------------||
A||-----------------------------------------------------------------22-||
E||-2222222222222224-555555555555555-2222222222224-5555555555555-22----||

G||----------------------------------|----------------------------------|
D||----------------------------------|----------------------------------|
A||-44444444-------------------------|-44444444-------------------------|
E||---------000000005555555522222222-|---------000000005555555522222222-|

G||-------------------------------||
D||-------------------------------||
A||-44444444-------------------22-||
E||---------000000005555555522----||

Verso
G||----------------------------------------------------||
D||----------------------------------------------------||
A||-44444-44444----------------------------------------||
E||-------------00000-00000-55555-55555-55555-55552222-||

Coro
G||--------------------------------------------------------------------||
D||--------------------------------------------------------------------||
A||-----------------------------------------------------------------22-||
E||-2222222222222224-555555555555555-2222222222224-5555555555555-22----||

Puente

G||------------------------------------------------------------------||
D||------------------------------------------------------------------||
A||-44444444------------------------44444444-------------------------||
E||---------000000005555555522222222--------000000005555555522222222-||

Coro x3
G||----------------------------------||
D||----------------------------------||
A||-44444444-------------------------||
E||---------000000005555555522222222-||

Intro x2
G||-------------------------------------------------------------||
D||-------------------------------------------------------------||
A||-444-44-4-4-444-------------------------------222-22-2-2-222-||
E||----------------000-00-0-0-000-222-22-2-2-222----------------||

En esta parte se toca un verso con pura guitarra y luego se toca esto

Coro x8
G||----------------------------------||
D||----------------------------------||
A||-44444444-------------------------||
E||---------000000005555555522222222-||

En la última vuelta termina con los remates así
G||----------------------------------||
D||----------------------------------||
A||-44444444--------------------22---||
E||---------0000000055555555-22------||

15 reproducciones

0 comentarios

Ver todos os comentários

¿Conseguiste tocar?

0 Tocaram 0 Ainda não

Grave um vídeo tocando No Que No e nos envie!

00:00 / 00:00
outros vídeos desta música
repetir qualidade Automático
Outros vídeos desta música
00:00 / 00:00
Automático
OK