Cifra Club

No Que No

Finde

Cifrado: Versão 3 (guitarra y guitarra eléctrica)
tono: F#
INTRO
Con un poco de flanger y un leve distor
 Para q suene bien nada mas chequen los tiempos
E|-------------------------------------------|
B|-------------------------------------------|
G|-------------------------------------------| x4
D|----6-6-9-9-6-6------9-9-6-6-2-2-----------|
A|-444-4-4-4-4-4-4--000-0-0-0-0-0------------|
E|-------------------------------------------|

Entra el distor
E|------------------------------------------|
B|------------------------------------------|
G|-666-6-6-66---------------444-------------| X2
D|-666-6-6-66-222-444-4-444-444-------------|
A|-444-4-4-44-222-444-4-444-222-------------|
E|-----------| 000-222-2-222-----------------

No entiendo lo que pasa
Por las noches todo        /aquí se toca
Hizo ruido………..            /el intro

    Me acerco al elevador………
E|--------------------------------|
B|--------------------------------|
G|-66-66--------------------------|
D|-66-66-22-22-77-77-44-44--------| guitar1   X2
A|-44-44-22-22-77-77-44-44--------|
E|-------00-00-55-55-22-22--------|

E|----------------------------------|
B|----------------------------------S| E TOCA A DESTIEMPO
G|---4--4--4--4--4--4--4--4---------| DE A  OTRA LIRA
D|---6--6--6--6--6--6--6--6---------| ESTO LO HACE PP    X2
A|----------------------------------| EN VIVO
E|----------------------------------|

Piensa bien las cosas que………
E|----------------------| en el segundo E/--------------
B|----------------------| B/--------------
G|----------------------| tiempo acaba G/----44--------





CORO
Siento vamos cayendo lento…….
E|-----------------------------|
B|-----------------------------|
G|-6---------------------------|
D|-6--2--7--4------------------| x2
A|-4--2--7--4------------------|
E|----0--5--2------------------|

El último tiempo acaba:
 Siento vamos cayendo lento oh
Así
E|---------------|
B|---------------|
G|-6-4--------44-|
D|-6-4-7--44--44-|
A|-4-2-7--44--22-|
E|-----5--22-----|

SEGUNDA GUITARRA HACE ESTO EN EL CORO
E|---4----| 44------4--7-5-4-----
B|--7-5-5-7--5-5-7--57-----5-----|
G|-------------------------------|
D|-------------------------------| X2
A|-------------------------------|
E|-------------------------------|
EN EL SEGUNC  TIEMPO LO ASE ASÍ
Siento vamos cayendo lento oh
E|---77-44----4---|
B|-5------55-7-5--|
G|----------------| x2
D|----------------|
A|----------------|
E|----------------|
Composición de --/Al Palo/Continuando con un Canto/Continuando un Canto/Disco Omonimo/Fulano/Galaktica en Concierto/Kaskivano/Los Dominantes/N/t/Nt/Nuevo Album/Perseguido por el mar/Volver a Comenzar/Volver a Empezar
    • ½ Tono
    • A
    • Bb
    • B
    • C
    • Db
    • D
    • Eb
    • E
    • F
    • F#
    • G
    • Ab
  • Agregar a la lista

    0 comentarios

    Ver todos los comentarios

    ¿Lograste tocar?

    0 Tocaron 0 Aún no

    ¡Graba un video tocando No Que No y envíanoslo!

    00:00 / 00:00
    Outros vídeos desta música
    Repetir Calidad Automático
    Outros vídeos desta música
    00:00 / 00:00
    Automático
    OK