Cifra Club

Me Equivocaría Otra Vez

Fito & Fitipaldis

Tablatura: Principal (guitarra)
Tono: A#
Gm               Gm 
----------------------------------10----------------------- 
---------------------------------8------------------------- 
--------------0--------------0--7-------------------------- 
------------0--------------0------------------------------- 
-1-0--------------1-0-------------------------------------- 
-----1-3--------------1-3---------------------------------- 

Gm                                              A# 
Se torció el camino tu ya sabes que no puedo volver 
F                                           Gm 
Son cosas del destino, siempre me quiere morder 
Gm                                      A# 
El horizonte se confunde con un negro telón 
        F                                   Gm 
Y puede ser, ¿cómo decir que se acabó la función? 

Cm                 F                   Gm 
Ha sido divertido, me equivocaría otra vez 
Gm                     A#                     F 
Quisiera haber querido lo que no he sabido querer 
D#                     F                     A# 
Quieres bailar conmigo puede que te pise los pies 
F                                    D# 
No soñaré solo porque me he quedao dormido 

A#                                   F 
No voy a despertarme porque salga el sol 
D#               F                    Gm 
Ya sé llorar una vez por cada vez que río 
         C7      D# 
No sé restar, no sé restar 
F                 Gm 
Tu mitad a mi corazón 

 Gm 
--------------------------------------------------------| 
--------------------------------------------------------| 
--------------------------------------------------------|x2 
--------------------------------------------------------| 
-------3-3s5--------------------------------------------| 
-3-5-6--------3-5-6-5-3---------------------------------| 

Gm                                                A# 
Puede ser que la respuesta sea no preguntarse por qué 
F                                        Gm 
Perderse por los bares donde se bebe sin sed 
Gm                                       A# 
Virgen de la locura nunca más te voy a rezar 
              F                                    Gm 
Que me he enterao de los pecados que me quieres quitar 

Cm                 F                     Gm 
Será más divertido cuando no me toque perder 
Gm                     A#                     F 
Sigo apostando cinco y cada dos por tres sale seis 
D#                  F                             A# 
Yo bailaría contigo pero es que estoy sordo de un pie 
F                                     D# 
No soñaré solo porque me he quedao dormido 

A#                                   F 
No voy a despertarme porque salga el sol 
D#               F                    Gm 
Ya sé llorar una vez por cada vez que río 
         C7      D# 
No sé restar, no sé restar 
F                 Gm 
Tu mitad a mi corazón 
 
----------------------------------------------------------- 
----------------------------------------------------------- 
-----------------5-5h7---7h8p7-5h7-5h7-5h7-5--------------- 
---------5-7-7h8-----------------------------5h7-5h7-5h7p5- 
-------5---------------8----------------------------------- 
-3-5-6----------------------------------------------------- 

---------------6-------10-----------15--------------------- 
-------------8-------8-----------11-----6h8-6-----------6-- 
-----------7----------------------------------7---5-7-7---- 
-3s5v--3s5-------5s8------5s8s12----------------8---------- 
----------------------------------------------------------- 
----------------------------------------------------------- 

-6---------------------------10---------------------------- 
-6---6h7-6----------------10------------11-10-------------- 
-7-------------------7-10------------10---------7---8---7-- 
-----------8h10-8-10------------8s10----------3s5-5---5---- 
----------------------------------------------------------- 
----------------------------------------------------------- 

----------------------------------------------------------- 
----------------------------------------------------------- 
---5------------------------------------------------------- 
-5--------------------------------------------------------- 
----------------------------------------------------------- 
----------------------------------------------------------- 

Cm                 F                   Gm 
Ha sido divertido, me equivocaría otra vez 
Gm                     A#                     F 
Quisiera haber querido lo que no he sabido querer 
D#                     F                     A# 
Quieres bailar conmigo puede que te pise los pies 
F                                  D# 
Soñaré solo porque me he quedao dormido 

A#                                   F 
No voy a despertarme porque salga el sol 
D#               F                    Gm 
Ya sé llorar una vez por cada vez que río 
         C7      D# 
No sé restar, no sé restar 
F                 Gm 
Tu mitad a mi corazón 

         C7 
No sé restar 
F                 Gm 
Tu mitad a mi corazón 
         C7 
No sé restar 
F                 Gm 
Tu mitad a mi corazón 

  Gm 
-------------------------------8-8h10---------------------- 
-----------------------8-10-11--------8-10-11-10h11-6h8---- 
----------------------------------------------------------- 
----------------------------------------------------------- 
-------3-3h5----------------------------------------------- 
-3-5-6-------3-5-6-5-3-------------------------------------
reproducciones 5.769
Acordes para:
    Colaboración y revision:
    • André Silva

    0 comentarios

    mostrar más comentarios

    ¿Conseguiste tocar?

    3 tocaron 0 aún no

    ¡Graba un vídeo tocando Me Equivocaría Otra Vez y envianoslo!

    00:00 / 00:00
    outros vídeos desta música
    repetir qualidade Automático
    Outros vídeos desta música
    00:00 / 00:00
    Automático
    OK