Cifra Club

Me Equivocaría Otra Vez

Fito & Fitipaldis

Tablatura: Principal (guitarra)
Tom: A
Gm              
E|----------------------------------10-----------------------|
B|---------------------------------8-------------------------|
G|--------------0--------------0--7--------------------------|
D|------------0--------------0-------------------------------|
A|-1-0--------------1-0--------------------------------------|
E|-----1-3--------------1-3----------------------------------|

Gm                                              Bb4 
Se torció el camino tu ya sabes que no puedo volver 
  Dm7                   F                   Gm 
Son cosas del destino, siempre me quiere morder 
Gm                                      Bb4 
El horizonte se confunde con un negro telón 
          Dm7         F                      Gm 
Y puede ser, ¿cómo decir que se acabó la función? 

Cm7                F                   Gm 
Ha sido divertido, me equivocaría otra vez 
Bb4(7/9)                                         F 
Quisiera haber querido lo que no he sabido querer 
Eb4(7/9)                                         Bb4(7/9) 
Quieres bailar conmigo puede que te pise los pies 
F                                    Eb4(7/9) 
No soñaré solo porque me he quedao dormido 

Bb4(7/9)                                 F 
No voy a despertarme porque salga el sol 
Eb               F                    Gm 
Ya sé llorar una vez por cada vez que río 
         C7      Eb4(7/9) 
No sé restar, no sé restar 
F                 Gm 
Tu mitad a mi corazón 

 Gm 
E|--------------------------------------------------------|
B|--------------------------------------------------------|
G|--------------------------------------------------------|
D|--------------------------------------------------------|
A|-------3-3/5--------------------------------------------|
E|-3-5-6--------3-5-6-1-3---------------------------------|

 Gm 
E|--------------------------------------------------------|
B|--------------------------------------------------------|
G|--------------------------------------------------------|
D|--------------------------------------------------------|
A|-------3-3/5--------------------------------------------|
E|-3-5-6--------3-5-6-1-3---------------------------------|

Gm                                              Bb4 
Puede ser que la respuesta sea no preguntarse por qué 
  Dm7                   F                   Gm 
Perderse por los bares donde se bebe sin sed 
Gm                                      Bb4 
Virgen de la locura nunca más te voy a rezar 
          Dm7         F                      Gm 
Que me he enterao de los pecados que me quieres quitar 

Cm7                F                   Gm 
Será más divertido cuando no me toque perder 
Bb4(7/9)                                         F 
Sigo apostando cinco y cada dos por tres sale seis 
Eb4(7/9)                                         Bb4(7/9) 
Yo bailaría contigo pero es que estoy sordo de un pie 
F                                    Eb4(7/9) 
No soñaré solo porque me he quedao dormido 

Bb4(7/9)                                 F 
No voy a despertarme porque salga el sol 
Eb               F                    Gm 
Ya sé llorar una vez por cada vez que río 
         C7      Eb4(7/9) 
No sé restar, no sé restar 
F                 Gm 
Tu mitad a mi corazón 
 
E|-----------------------------------------------------------|
B|-----------------------------------------------------------|
G|-----------------5-5h7----7h8p7-5h7-5h7-5h7p5-------------|
D|---------5-7-7h8----------8-------------------5h7-5h7-5h7p5|
A|-------5--------------8--8--------------------------------|
E|-3-5-6-----------------------------------------------------|

E|---------------6-------10-----------15---------------------|
B|-------------8-------8-----------11-----6h8-6-----------6--|
G|-----------7----------------------------------7---5-7-7----|
D|-3/5\--3/5-------5/8------5/8/12----------------8----------|
A|-----------------------------------------------------------|
E|-----------------------------------------------------------|

E|-6---------------------------10----------------------------|
B|-6---6h7-6----------------10------------11-10--------------|
G|-7-------------------7-10------------10---------7---8---7--|
D|-----------8h10-8-10------------8/10----------3/5-5---5----|
A|-----------------------------------------------------------|
E|-----------------------------------------------------------|

E|-----------------------------------------------------------|
B|-----------------------------------------------------------|
G|---5-------------------------------------------------------|
D|-5---------------------------------------------------------|
A|-----------------------------------------------------------|
E|-----------------------------------------------------------|

Cm7                 F                   Gm 
Ha sido divertido, me equivocaría otra vez 
Bb4(7/9)                                        F 
Quisiera haber querido lo que no he sabido querer 
Eb4(7/9)                                        Bb4(7/9) 
Quieres bailar conmigo puede que te pise los pies 
F                                  Eb4(7/9) 
Soñaré solo porque me he quedao dormido 

Bb4(7/9)                                 F 
No voy a despertarme porque salga el sol 
Eb               F                    Gm 
Ya sé llorar una vez por cada vez que río 
         C7      Eb4(7/9) 
No sé restar, no sé restar 
F                 Gm 
Tu mitad a mi corazón 

         C7 
No sé restar 
F                 Gm 
Tu mitad a mi corazón 
         Cm7 
No sé restar 
Eb7      D7          Gm 
Tu mitad a mi corazón 

  Gm 
E|-------------------------------8-8h10----------------------|
B|-----------------------8-10-11--------8-10-11-10h11-6h8----|
G|-----------------------------------------------------------|
D|-----------------------------------------------------------|
A|-------3-3h5-----------------------------------------------|
E|-3-5-6-------3-5-6-5-3-------------------------------------|
reproducciones 5.887
Acordes para:
    Colaboración y revision:
    • LEONARDO MUSICA
    • André Silva

    0 comentarios

    mostrar más comentarios

    ¿Conseguiste tocar?

    3 tocaron 0 aún no

    ¡Graba un vídeo tocando Me Equivocaría Otra Vez y envianoslo!

    00:00 / 00:00
    outros vídeos desta música
    repetir qualidade Automático
    Outros vídeos desta música
    00:00 / 00:00
    Automático
    OK