Cifra Club

A Place To Die Tab

Five Finger Death Punch

Cifrado: Principal (guitarra y guitarra eléctrica)
tono: G
Intro
E|-------------------------------------------------------------------------|
B|-------------------------------------------------------------------------|
G|-------------------------------------------------------------------------|
D|--777-555-777-5-7-9-7-5-9-7---777-555-777--7-5---------------------------|
A|--000-000-000-----------------000-000-000------8-7h8p7-5-7-5-------------|
E|-------------------------------------------------------------------------|

E|---------------5-7-------------------------------------------------------|
B|-------------------8-7-5-------------------------------------------------|
G|-------------------------7-5-------------------------5-7*----------------|
D|--777-555-777----------------7--777-555-777--5-5h6h7---------------------|
A|--000-000-000-------------------000-000-000------------------------------|
E|-------------------------------------------------------------------------|

Verse
E|-------------------------------------------------------------------------|
B|-------------------------------------------------------------------------|
G|-------------------------------------------------------------------------|
D|--777-555-7-7-5-7-777-555-7---5-9-7-5------------------------------------|
A|--000-000-0-0-0-0-000-000-0-----------7-5--------------------------------|
E|------------------------------------------7-5----------------------------|

E|-------------------------------------------------------------------------|
B|-------------------------------------------------------------------------|
G|-------------------------------------------------------------------------|
D|----------------------------------5-9-7-5--------------------------------|
A|--777-555-7-7-5-7-777-555-7---------------7------------------------------|
E|--000-000-0-0-0-0-000-000-0---5-7----------------------------------------|

Chorus- check on the rhythm & # of repeats on CD
E|-------------------------------------------------------------------------|
B|-------------------------------------------------------------------------|
G|-------------------------------------------------------------------------|
D|-------------------------------------------------------------------------|
A|--9----7-0-9-9---7-7-9---------------------------------------------------|
E|--7-00-5-0-7-7-0-5-5-7---------------------------------------------------|

Solo
E|-------------------------------------------------------------------------|
B|------3h5p3p0------------------------------------------------------------|
G|--4-2---------5-4-2-4---4-2----------------------------------------------|
D|----------------------------2-4-5-4-2-----2------------------------------|
A|--------------------------------------5-2-(2)----------------------------|
E|-------------------------------------------------------------------------|

E|-------------------------------------------------------------------------|
B|------3h4p3p0---------------3h4h5-7-8-7-3h5------------------------------|
G|--4-2---------5-4-2-4---4-2----------------------------------------------|
D|-------------------------------------------------------------------------|
A|-------------------------------------------------------------------------|
E|-------------------------------------------------------------------------|

E|-------------------------------------------------------------------------|
B|--12-13-12-13-12-13-12-13-10-12-10-12-10-12-10-12-8-10-8-10-8-10-8-10----|
G|-------------------------------------------------------------------------|
D|-------------------------------------------------------------------------|
A|-------------------------------------------------------------------------|
E|-------------------------------------------------------------------------|

Breakdown-ish / Bridge
E|-------------------------------------------------------------------------|
B|--7-8-7-8-7-8-10-8-7-8-7-8-7-8-10-8-7-8-5-7-5-7-8-7-5-7-5-7-5-7-8-7-5-7--|
G|-------------------------------------------------------------------------|
D|-------------------------------------------------------------------------|
A|-------------------------------------------------------------------------|
E|-------------------------------------------------------------------------|

E|-------------------------------------------------------------------------|
B|--7-5-5h7h8p7p5-7-5-7-8-7-7h8h10p8p7-8-7-8-10-8-8h10h12p10p8-10-8-10-12^-|
G|-------------------------------------------------------------------------|
D|-------------------------------------------------------------------------|
A|-------------------------------------------------------------------------|
E|-------------------------------------------------------------------------|

Intro
Verse x2
Chorus
Verse x2
Chorus
Solo
Breakdown/Bridge
Verse x2
Chorus
Solo
End

| /  slide up
| \  slide down
| h  hammer-on
| p  pull-off
| ~  vibrato
| +  harmonic
| x  Mute note
===============================================================================
Compositor no encontrado.
Colaboración y revisión:
  • Jeferson L.
30 vistas
    • ½ Tono
    • A
    • Bb
    • B
    • C
    • Db
    • D
    • Eb
    • E
    • F
    • F#
    • G
    • Ab
  • Agregar a la lista

    0 comentarios

    Ver todos los comentarios

    ¿Lograste tocar?

    0 Tocaron 0 Aún no

    ¡Graba un video tocando A Place To Die Tab y envíanoslo!

    00:00 / 00:00
    Otros videos de esta canción
    Repetir Calidad Automático
    Otros videos de esta canción
    00:00 / 00:00
    Automático
    OK