Cifra Club

Got The Feelin

Five

Tab de bajo: Principal
Common Time(4/4)
Standadrd tuning(EADG)

INTRO:
                     (x3)                            (x4)
|-------------|-----------|-------------|-----------------|
|-------------|*---------*|-------------|*---------------*|
|-------------|*-r-e-s-t-*|-------------|*-3-3-r---------*|
|-r-r-r-1/10\-|-----------|-r-r-r-1/10\-|--------0-1-1-r--|
  1 2 3 4  &     1 2 3 4    1 2 3 4  &     1 & 2 & 3 & 4

VERSE/PRE-CHORUS:
|-----------------|
|*---------------*|
|*-3-3-r---------*|
|--------0-1-1-r--|
   1 & 2 & 3 & 4

CHORUS/END:
|-----------------|
|*---------------*|
|*-3-3-r---------*|
|--------1-1-1-r--|
   1 & 2 & 3 & 4

PRE-VERSE 2:
|-----------|---------------|
|-----------|---------------|
|-3-3-r-r-r-|-3-3-r-r-------|
|-----------|---------1/10\-|
  1 & 2 3 4   1 & 2 3 4  &

By: Johari Taylor
E-mail: *, or *
More Bass Tabs: http://*~viking/*


00:00 / 00:00
Otros videos de esta canción
Repetir
Otros videos de esta canción
Composición de Five / J. Gallagher / R. Stannard
22 vistas

0 comentarios

Ver todos los comentarios

¿Lograste tocar?

0 Tocaron 0 Aún no

¡Graba un video tocando Got The Feelin y envíanoslo!

00:00 / 00:00
OK