Cifra Club

Deus É Maior

Flavinho

Cifrado: Principal (guitarra y guitarra eléctrica)
tono: F#
E|----------------------------------------------------------------------------------:
B|---9---14-14---14-12-9------9---14-14--14-12-14----9-14-14---14-12-9---9--14-14-14:
G|-9------------------------9----------------------9-------------------9------------:
D|----------------------------------------------------------------------------------:
A|----------------------------------------------------------------------------------:
E|----------------------------------------------------------------------------------:

 C#m          E                   B9          F#m    C#m
Não, não há, Não, não há, Não há mal, que me possa vencer.
C#m          E                    B9          F#m    C#m
Não, não há, Não, não há, Não há mal, que me possa vencer.

     G#m    A        B/A            E   B/D#  C#m G#m  A       B        C#m
Pois tudo posso, naquele que me for   ta   lece, Tudo posso em Je  sus  Cristo.
     G#m     A        B/A       E     B/D#  C#m  G#m   A       B        C#4
Pois tudo posso, naquele que me for   ta   lece, Tudo posso em Je  sus  Cristo.

  C#m                 E                B9      F#m           C#m
Nenhum problema, Nem meus pecados, Poderão superar o amor de Deus.
  C#m                 E                B9      F#m           C#m
Nenhum problema, Nem meus pecados, Poderão superar o amor de Deus.

    G#m   A        B/A       E     B/D#  C#m G#m    A        B   G#m  C#m
Deus é maior que tudo que me a   com  tece, Deus é grande Supre mo  Rei.
    G#m  A          B/A      E   B/D#  C#m   G#m    A        B  G#m   C#m
Deus é maior que tudo que me a   com  tece, Deus é grande Supre mo  Rei.

   C#m               E              B9      F#m           C#m
Nem a tristeza, nem mesmo à dor poderá, Superar o amor de Deus.
   C#m                 E            B9      F#m           C#m
Nem a tristeza, nem mesmo à dor poderá, Superar o amor de Deus.

    G#m  A         B/A       E  B/D#  C#m G#m        A     B        C#m
Deus é maior que tudo que me a  com  tece, Deus é grande Supre  mo   Rei.
    G#m    A      B/A        E  B/D#  C#m   G#m      A       B  G#m  C#m
Deus é maior que tudo que me a  com  tece, Deus é grande Supre  mo   Rei.

    Dm               F                C      Gm            Dm
Nem a vingança, nem mesmo o ódio, Poderá superar o amor de Deus.
    Dm               F                C      Gm            Dm
Nem a vingança, nem mesmo o ódio, Poderá superar o amor de Deus

         A#      C/A#        F  C/E   Dm    Am      A#       C   Am  Dm
Deus é maior que tudo que me a  con  tece, Deus é grande Supre  mo  Rei.
         A#      C/A#        F  C/E   Dm    Am      A#       C   Am  Dm
Deus é maior que tudo que me a  con  tece, Deus é grande Supre  mo  Rei.

E|--------------------------------------------------------------------------------:
B|-11--14--16--16-14-12--16-18-18-16-18-19-18-16-14-12----------------------------:
G|--------------------------------------------------------------------------------:
D|--------------------------------------------------------------------------------:
A|--------------------------------------------------------------------------------:
B|--------------------------------------------------------------------------------:

E|--------------------------------------------------------------------------------:
B|-11-14/16-16-14-12-16-18-14-16--18-19-20-18-17-15-------------------------------:
G|--------------------------------------------------------------------------------:
D|--------------------------------------------------------------------------------:
A|--------------------------------------------------------------------------------:
E|--------------------------------------------------------------------------------:

00:00 / 00:00
Otros videos de esta canción
Repetir
Otros videos de esta canción
Composición de Cicero
1.517 vistas
    • ½ Tono
    • A
    • Bb
    • B
    • C
    • Db
    • D
    • Eb
    • E
    • F
    • F#
    • G
    • Ab
  • Agregar a la lista

    0 comentarios

    Ver todos los comentarios
    00:00 / 00:00
    OK