Cifra Club

Gold Dust Woman

Fleetwood Mac

Cifrado: Principal (guitarra y guitarra eléctrica)
tono: F

Transcribed by: Rene Overgaard
Email: *o,dk


Intro Rif

-|----------------------------------|-
-|-------3---------3------3-3-------|-
-|-------2---------3------3-3-------|-
-|----0-------0--------0------------|-
-|----------------------------------|-
-|----------------------------------|-

   
  Verse, Chords
     G/b    C/g     G/d   Dno3rd 
-|---3------------------------------|-
-|---3------5-------3------3--------|-
-|---0------5-------4------2--------|-
-|----------5-------5------0--------|-
-|---2--------------5---------------|-
-|----------3-----------------------|-


  Bridge, chords  
     Bb     G       C    Dno3rd                       

-|----------------------------------|-
-|---3------3-------5---------------|-
-|---3------4-------5------7--------|-
-|---3------5-------5------7--------|-
-|---1------5-------3------5--------|-
-|----------3-----------------------|-
                                                                              


D                      G/b
Rock on- gold dust woman
C/g                  G
Take your silver spoon
             D (intro riff)
And dig your grave

Heartless challenge
Pick your path and i'll pray
Wake up in the morning
See your sunrise- loves- to go down
Lousy lovers- pick their prey
But they never cry out loud

        Bb     
Did she make you cry
G 
Make you break down
C                            Dno3rd
Shatter your illusions of love

Is it over now- do you know how
Pick up the pieces and go home.

Rock on- ancient woman
Follow those who pale
In your shadow

Rulers make bad lovers
You better put your kingdom up for sale

Did she make you cry
Make you break down
Shatter your illusions of love
Is it over now- do you know how
Pickup the pieces and go home.
00:00 / 00:00
Otros videos de esta canción
Repetir
Otros videos de esta canción
Composición de Stevie Nicks
272 exhibiciones
    • ½ Tono
    • A
    • Bb
    • B
    • C
    • Db
    • D
    • Eb
    • E
    • F
    • F#
    • G
    • Ab
  • Agregar a la lista
    00:00 / 00:00
    OK