Cifra Club

Gold Dust Woman

Fleetwood Mac

Cifrado: Principal (guitarra y guitarra eléctrica)
Selo Cifra Club: esta cifra foi revisada para atender aos critérios oficiais da nossa Equipe de Qualidade.
tono: F
[Intro] D9  Bb/D  D9  Bb/D
        D9  Bb/D  D9

[Tab - Intro]

    D9            Bb/D
       ↓      ↓                  ↓
E|-------------------------------------|
B|-----3~-----3~-----3--x-----3~-3~----|
G|-----2~-----2~-----3--x-----3~-3h2~--|
D|--0~-----0~-----0~----x--0~----------|
A|-------------------------------------|
E|-------------------------------------|

    D9            Bb/D
       ↓      ↓                  ↓
E|-------------------------------------|
B|-----3~-----3~-----3--x-----3~-3~----|
G|-----2~-----2~-----3--x-----3~-3h2~--|
D|--0~-----0~-----0~----x--0~----------|
A|-------------------------------------|
E|-------------------------------------|

    D9            Bb/D
       ↓      ↓                  ↓
E|-------------------------------------|
B|-----3~-----3~-----3--x-----3~-3~----|
G|-----2~-----2~-----3--x-----3~-3h2~--|
D|--0~-----0~-----0~----x--0~----------|
A|-------------------------------------|
E|-------------------------------------|

    D9
       ↓      ↓         ↓      ↓
E|-------------------------------------|
B|-----3~-----3~-3~-----3~-----3~-3~---|
G|-----2~-----2~-2~-----2~-----2~-2~---|
D|--0~-----0~--------0~-----0~---------|
A|-------------------------------------|
E|-------------------------------------|

[Primeira Parte]

D9                 G/B
Rock on, gold dust woman
C/G                   G/D
Take your silver spoon, dig your grave

( D9  Bb/D ) 
( D9  Bb/D )

D9          G/B
Heartless challenge
C/G                     G/D
Pick your path and I'll pray

( D9  Bb/D ) 
( D9  Bb/D )

D9              G/B
Wake up in the morning
C/G              G/D         D9   Bb/D
See your sunrise loves to go down

( D9  Bb/D )

D9     G/B   C/G
Lousy lovers pick their prey
         G/D            D9  Bb/D     D9
But they never cry out loud, cry out

[Refrão]

              Bb
Well, did she make you cry
G/B
Make you break down
C/G                       D9
Shatter your illusions of love?
          Bb        G/B
And is it over now, do you know how?
C/G                        D9  Bb/D
Pick up the pieces and go home

( D9  Bb/D  D9 )

[Segunda Parte]

                G/B     C/G             G/D
Rock on ancient queen, follow those who pale
        D9     Bb/D
In your shadow

( D9  Bb/D )

D9               G/B
Rulers make bad lovers
    C/G              G/D           D9  Bb/D          D9
You better put your kingdom up for sale, up for sale

[Refrão]

              Bb
Well, did she make you cry
G/B
Make you break down
C/G                       D9
Shatter your illusions of love?
          Bb        G/B
And is it over now, do you know how?
C/G                        D9
Pick up the pieces and go home

              Bb
Well, did she make you cry
G/B
Make you break down
C/G                       D9
Shatter your illusions of love?
                      Bb        G/B
And now tell me is it over now, do you know how
C/G                        D9  Bb/D
Pick up the pieces and go home?

    D9  Bb/D
Go home
    D9   Bb/D
Go home!

( D9  Bb/D  D9 )

[Terceira Parte]

D9
Pale
Shadow of a woman
Black widow
Pale
Shadow of a dragon
Dust woman
Pale
Shadow of a woman
Black widow
Pale
Shadow
She's a dragon
Gold dust woman
Woman, woman
00:00 / 00:00
Otros videos de esta canción
Repetir
Otros videos de esta canción
4.561 exhibiciones
    • ½ Tono
    • A
    • Bb
    • B
    • C
    • Db
    • D
    • Eb
    • E
    • F
    • F#
    • G
    • Ab
  • Agregar a la lista

Afinación de cifrado

Afinador online

    00:00 / 00:00
    OK