Cifra Club

H.O.L.Y.

Florida Georgia Line

Cifrado: Principal (guitarra y guitarra eléctrica)
tono: Bb (con acordes en la forma de G) Capotraste en 3ª casa
[Intro]  G D/F# Em D C Am D
 
E|--------------------------------------------------------------------- 
B|-----------------0--3--3--------------------------------3--3---------
G|-0-----0-----0h2--------2h4-----0----------0-----0----0-----2h4------ 
D|----0-----0------------------0-----0--2/4-----4--0h2----------------- 
A|--------------------------------------------------------------------- 
E|---------------------------------------------------------------------

E|--------------------------------------------------------------------- 
B|----3------------3--3-------3---------------------------------------- 
G|----2p0--0----0-----2h4-----2p0-------------------------------------- 
D|---------0h2-------------0------------------------------------------- 
A|-3------------------------------------------------------------------- 
E|--------------------------------------------------------------------- 


G                       D/F#
When the sun had left, and the winter came   
Em                   D
and the sky thawed, to only bring the rain   
C                   Am        D
I sat in darkness, all broken hearted   

G                      D/F#
I couldn't find a day, I didn feel alone   
Em                    D
I never meant to cry, started losing hope   
C                 Am                     D
But somehow baby, you broke through and saved me   

       Em                        C
You an angel, tell me you never leaving   
              Em                          D
Cause you the first thing i know i can believe in     


[Refrão]
        G     D/F# Em     D
You're holy, holy, holy, holy   
     C                  Am       D
I'm high on loving you, high on loving you   
        G     D/F# Em     D
You're holy, holy, holy, holy   
     C                  Am       D
I'm high on loving you, high on loving you  


G                            D/F#
You made the brightest days, from the darkest nights   
Em                     D
You're the river bank, where I was baptized   
C                                  Am           D
Cleaned from the demons, that were killing my freedom   
G                    D/F#
Let me lay you down, give me to you   
Em                    D     C
Get you singing babe, hallelu----jah   
              Am                     D
We'll be touching, we'll be touching heaven   

      Em                         C
You an angel, tell me you never leaving   
              Em                          D
Cause you the first thing i know i can believe in     


[Refrão]
        G     D/F# Em     D
You're holy, holy, holy, holy   
     C                  Am       D
I'm high on loving you, high on loving you   
        G     D/F# Em     D
You're holy, holy, holy, holy   
     C                  Am       D
I'm high on loving you, high on loving you 


[Ponte]
Am                                C
I don't need the stars cause you shine for me   
B7                               Em
Like fire in my veins, you're my ecstasy   
          D
You're my ecstasy   


[Refrão]
        G     D/F# Em     D
You're holy, holy, holy, holy   
     C                  Am       D
I'm high on loving you, high on loving you   
        G     D/F# Em     D
You're holy, holy, holy, holy   
     C                  Am       D
I'm high on loving you, high on loving you 


[Final, só marcando as notas]
G                         D/F#               Em
You're the healing hands, where it used to hurt   
                  D                        C9
You're my saving grace, you're my kind of church   
       G
You holy
00:00 / 00:00
Otros videos de esta canción
Repetir
Otros videos de esta canción
Composición de Busbee, Nate Cyphert, William Wiik Larsen
Colaboración y revisión:
  • Junior Saquetti
  • Maicon Schelter
444 vistas
    • ½ Tono
    • A
    • Bb
    • B
    • C
    • Db
    • D
    • Eb
    • E
    • F
    • F#
    • G
    • Ab
  • Agregar a la lista

    0 comentarios

    Ver todos los comentarios

    ¿Lograste tocar?

    3 Tocaron 1 Aún no

    ¡Graba un video tocando H.O.L.Y. y envíanoslo!

    00:00 / 00:00
    OK