Cifra Club

Aprenda

Re:Member

Flow

Tablatura: Principal (guitarra)
tono: B
     B  F#  G#  D#  F#
E|------------------------------------------------------|
B|------------------------------------------------------|
G|------------------------------------------------------|
D|--44444444----------------------88888888--------------|
A|--22222222--44444444--66666666--66666666----444444444-|
E|------------22222222--44444466--------------222222222-|

B            F#       G#             D#
Kaki narase sonzai wo,Koko ni iru to...
F#
Arata na tabi ga ima hajimaru

E 7x

B       F#         G#
Kawari yuku kisetsu no naka wo
B       F#        G#
Ikinuku tabi ni bokura
B       F#        G#      F#         E
Chie to tsuyosa wo te ni ireta kedo  

B       F#        G#
Nagareteku jikan no naka ni
B      F#         G#
Okizari ni shita omoi wo
B       F#         G#    F#          E
Wasureta koto sura wasurete ita      

Riff 1:
E|-----7--(b9)-11--(b9)-------(b9)-7----------------------------| 2X
B|-----7---------------------7-(b9)-----------------------------|
G|--------------------------------------------------------------|

(Riff 1)
Kuzure kaketa toki kodoku wo shitte
(Riff 1)
Deaeta bokura hitori ja nai

(Riff 2)

Riff 2:
E|------------------------------------------------------|
B|---2--4--6--7-----------------------------------------|
G|------------------------------------------------------|

B          F#        G#             D#
Sarake dase kanjou wo Banjou no omoi wo
B          F#        G#            D#
Namidame ga unmei wo kaete yuku      
B          F#        G#             D#
Yami ni uchi narase kodou wo Kitto aeru yo
B          F#
Onaji itami no hata no moto de

Verse:
B       F#        G#
Utsuri yuku kioku no naka de
B      F#         G#
Kawara nai taisetsu na mono wo
B       F#         G#     F#          E
Mitsuke dasou toshiate samayotte ita  

Riff 1:
E|-----7--(b9)-11--(b9)-------(b9)-7----------------------------| 2X
B|-----7---------------------7-(b9)-----------------------------|
G|--------------------------------------------------------------|

(Riff 1)
Boukyaku no hate de deaeta no wa

(Riff 1)
Wazuka demo tashika na nukumori

(Riff 2) 2x

Guitar 2

Riff 3: 
E|-----------|
B|-----------|
G|-----------|
D|--22--44xx-|
A|--22--66xx-|
E|--00-------|

B          F#        G#             D#
Sarake dase kanjou wo banjou no omoi wo
B          F#         G#         D#
Namidame ga unmei wo kaete yuku
B          F#         G#            D#
Yami ni uchi narase kodou wo Kitto aeru yo

B          F#        G#
Kaki narase sonzai wo
           D#
Koko ni iru to...
B           F#          G#
Hibike ano akatsuki no sora ni

       B          F#       G#        D#           F#
E|------------------------------------------------------|
B|------------------------------------------------------|
G|------------------------------------------------------|
D|--44444444----------------------88888888--------------|
A|--22222222--44444444--66666666--66666666----444444444-|
E|------------22222222--44444466--------------222222222-|

Riff 1:
E|-----7--(b9)-11--(b9)-------(b9)-7----------------------------| 2X
B|-----7---------------------7-(b9)-----------------------------|
G|--------------------------------------------------------------|

Riff 2:
E|------------------------------------------------------|
B|---2--4--6--7-----------------------------------------|
G|------------------------------------------------------|

Riff 3: 
E|-----------|
B|-----------|
G|-----------|
D|--22--44xx-|
A|--22--66xx-|
E|--00-------|
Composição de FLOW
Colaboración y revision:
  • Gabriel Lima
150 reproducciones
    • ½ Tono
    • A
    • Bb
    • B
    • C
    • Db
    • D
    • Eb
    • E
    • F
    • F#
    • G
    • Ab
  • Adicionar à lista

    0 comentarios

    Ver todos os comentários
    00:00 / 00:00
    outros vídeos desta música
    repetir qualidade Automático
    Outros vídeos desta música
    00:00 / 00:00
    Automático
    OK