Cifra Club

Escúchame Mujer

Fondo Flamenco

Cifrado: Principal (guitarra y guitarra eléctrica)
tono: Eb
INTRO (2 VECES):
El arpegio es el siguiente:
 D#            A#              Cm             Gm
E|------6-----6--------6-----6--------3-----3--------3-----3----|
B|----8-----8--------6-----6--------4-----4--------3-----3------|
G|--8-----8--------7-----7--------5-----5--------3-----3--------|
D|--------------------------------------------------------------|
A|-6----------------------------3-------------------------------|
E|---------------6-----------------------------3----------------|

 G#               A#             Cm          (Rasgado hacia Abajo)
E|-------4-----4---------6-----6---------3-----3---3------------|
B|-----4-----4---------6-----6---------4-----4-----4------------|
G|---5-----5---------7-----7---------5-----5-------5------------|
D|-------------------------------------------------5------------|
A|---------------------------------3---------------3------------|
E|-4---------------6-------------------------------3------------|

ESTROF S 1:
  D#                   A#
Paseo por las huellas, que deja tus zapatos,
Cm                    Gm                      G#
me escondo para mirarte en el humo de tu cigarro,
                    A#               Cm
bailo con el vuelo de tu falda al caminar...
  D#              A#
Sonrío por tener, esta amistad contigo,
Cm                    Gm
aunque quizás deba llorar
                      G#
porque nunca seremos más que amigos
            A#                       Cm
sigo en el puto proyecto de hacerte feliz...

PD-E STRIBILLO:
G#                              A#
Te espero en el vaivén de tus caderas,
                 Cm            A#
espera a que yo llegue para desnudarte,
G#                        A#
haría de esta noche una leyenda
                  Cm                A#
tienes que estar preparada para entregarte...


ESTRIBILLO:

G#                       A#
Escúchame mujer, que aquí sólo estoy yo,
Cm              Gm                G#
midiendo la distancia hasta tu corazón,
A#                             Cm
aunque tú no lo sientas, eso lo sufro yo...
G#                     A#
Escúchame mujer, sigo pensando en ti
Cm          Gm                    G#
vido de tu recuerdo, maldigo mi existir,
             A#
nada tiene sentido...

INTERMEDIO = INTRO (1 VEZ)

ESTROF S 2:
D#                    A#
Te espero cada noche, en el mundo de los sueños,
Cm                       Gm                     G#
allí no sé dónde empiezan mis manos y acaba tu cuerpo,
                        A#           Cm
siento no sentir que ya no quiero despertar...
D#                      A#
Juego con las palabras, que salen de tu boca,
Cm                  Gm                     G#
vacilo entre tus labios te invito a otra copa,
                A#              Cm
que manchan tus besos de rojo carmín..


PD-E STRIBILLO Y ESTRIBILLO UNA VEZ MÁS

FINAL:
G#                                Cm
Sólo tú y tus besos, alimentan mis ganas,
                                      G#
llenan mis recuerdos, no siento lo que te digo

digo lo que siento,
                    A#
me estoy volviendo loco de tanto esperar...
00:00 / 00:00
Otros videos de esta canción
Repetir
Otros videos de esta canción
Composición de Fondo Flamenco
153 exhibiciones
    • ½ Tono
    • A
    • Bb
    • B
    • C
    • Db
    • D
    • Eb
    • E
    • F
    • F#
    • G
    • Ab
  • Agregar a la lista
    00:00 / 00:00
    OK