Cifra Club

Intento

Fondo Flamenco

Cifrado: Principal (guitarra y guitarra eléctrica)
tono: Bm
   Bm       A        G        F#
E|------5-------------------------2------------------|
B|-3--3-----2--2-3---0---0-2----5---5----------------|
G|---4--------0---------0------2-2-2-2---------------|
D|--4--------4---------4------0----------------------|
A|-2--------0----------------------------------------|
E|-------------------3-------------------------------|

   Bm       A                
E|------5--------------------------------------------|
B|-3--3-----2--2-3--------------------------------8--|
G|---4--------0-----------------------------3~6--7---|
D|--4--------4-------9---7--5--7----5~7~5--4----8----|
A|-2--------0--------10--9--7--9---5------4----7-----|
E|-------------------10--9--7--9--3------2-----------|

[Primeira Parte]

    Bm
No puedo explicar qué pasó
              A
Solo puedo decirte que no funcionó
               G
No fue tuya la culpa

Fue de los dos
                   F#
Por ser tan caprichosos

Bm
Nos agarramos tan fuerte
            A
Que nos cansamos tan rápidamente
              G
Llegamos a un punto lejano y oscuro
              F#
Y allí nos perdimos

[Pré-Refrão]

      Bm                                   A
Y todavía, ando buscando la salida de este laberinto
                                 G
Que alguien me de un mapa, porque me he perdido
                     F#                       F#
Y ya no sé cómo se camina, si no voy contigo

[Refrão]

   Bm                        A
Intento volar, pero no llevo alas
                      G
Se me quedaron tantas cosas en tu cama
                         F#
Que siento que hasta el tiempo se me escapa

   Bm                              A
Me cantan tus palabras en mis madrugadas
                      G
Y el viento trae desde tu casa
                      F#
Esta melodía, que no acaba

 Bm           A
Poco a poco, paso a paso
     G         F#
Nos fuimos alejando
 Bm             A
Como el agua se hace hielo
G        F#
Nos congelamos
    G             F#
No fuimos capaces de comportarnos
 G           A
Como seres humanos
 Bm             A
Fuimos salvajes y animales
  G               F#
Y hasta que nos matamos

[Pré-Refrão]

       Bm                                     A
Y todavía, sigo perdido en el desierto de tu cobardía
                          G
Te lo dije, que si no lo intentas, no sabrías
                   F#
Y si algún día funcionaría
00:00 / 00:00
Otros videos de esta canción
Repetir
Otros videos de esta canción
Composición de Alejandro Astola Soto
Colaboración y revisión:
  • Marcelo Zeme
2.061 exhibiciones
    • ½ Tono
    • Am
    • Bbm
    • Bm
    • Cm
    • C#m
    • Dm
    • Ebm
    • Em
    • Fm
    • F#m
    • Gm
    • G#m
  • Agregar a la lista
    00:00 / 00:00
    OK