Cifra Club

Aprenda

A Matter Of Time

Foo Fighters

Tablatura: Principal (guitarra)
tono: E
Intro:
E|---------------------------------------------------------|
B|---------------------------------------------------------|
G|----9------9--9-9---------------9------9--9-9------------|
D|----9------9--9-9---------------9------9--9-9------------|
A|----7------7--7-7-2--4/6\5------7------7--7-7-2--4/6\5---|
E|--0----0-0--------0--2/3\2p0--0----0-0--------0--2/3\2p0-|

E|--------------------------------------------------------|
B|--------------------------------------------------------|
G|----9------9--9-9---------------9------9--9-9-----------|
D|----9------9--9-9---------------9------9--9-9-----------|
A|----7------7--7-7-2--4/6\5------7------7--7-7-----------|
E|--0----0-0--------0--2/3\2p0--0----0-0--------0---------|

Verso:
E|------------------------------------------------------------------|
B|------------------------------------------------------------------|
G|------------------------------------------------------------------|
D|--9-9-9-9-9-9-9-9-9-9-9-9-9-9-9-9-9-9-9-9-9-9-9-9-9-9-9-9-9-9-9-9-|
A|--7-7-7-7-7-7-7-7-7-7-7-7-7-7-7-7-6-6-6-6-6-6-6-6-6-6-6-6-6-6-6-6-|
E|------------------------------------------------------------------|
   PM.............................................................
E|------------------------------------------------------------------|
B|------------------------------------------------------------------|
G|------------------------------------------------------------------|
D|--7-7-7-7-7-7-7-7-7-7-7-7-7-7-7-7-7-7-7-7-7-7-7-7-7-7-7-7---------|
A|--5-5-5-5-5-5-5-5-5-5-5-5-5-5-5-5-4-4-4-4-4-4-4-4-4-4-4-4-4/5\4---|
E|----------------------------------------------------------2/3\2p0-|
   PM.....................................................
E|------------------------------------------------------------------|
B|------------------------------------------------------------------|
G|------------------------------------------------------------------|
D|--5-5-5-5-5-5-5-5-5-5-5-5-5-5-5-5-9-9-9-9-9-9-9-9-9-9-9-9-9-9-9-9-|
A|--3-3-3-3-3-3-3-3-3-3-3-3-3-3-3-3-7-7-7-7-7-7-7-7-7-7-7-7-7-7-7-7-|
E|------------------------------------------------------------------|
   PM.............................................................
                                                                  x2
E|------------------0-------0-----------------------0---------------:
B|----------5---0-------0-------0-----------7---0-------0---7---0---:
G|------6-------------------------------9---------------------------:
D|--7-------------------------------10------------------------------:
A|------------------------------------------------------------------:
E|------------------------------------------------------------------:

E|-------------------------------|
B|-------------------------------|
G|-------------------------------|
D|--9--9--9-9-9-9---9-9--9-9-----|
A|--7--7--7-7-7-7---7-7--7-7-----|
E|--0--0--0-0-0-0---0-0--0-0-12\-|

(Guitarra 2 / Verso 2)
E|---------------12----------11----------11----------10----------10---------|
B|--------12-----------------------12-------------------10-12-10----10---10-|
G|-----13----13-----13----13----13----13----13----13-------------------9----|
D|--14-----------------14----------------------14---------------------------|
A|--------------------------------------------------------------------------|
E|--------------------------------------------------------------------------|

E|--9--------9---------------8--------8---0----7-------7---0-----|
B|------10-----------------------10---------------9----------9---|
G|----9----9---9-11/12\11p9----9----9---9---9---9---9---9--------|
D|---------------------------------------------------------------|
A|---------------------------------------------------------------|
E|---------------------------------------------------------------|

                                  (2x)
E|----------0---0------------0--------|-------------------------------|
B|------5-0---0---0------7-0---0-7-0--|-------------------------------|
G|----6----------------9--------------|-------------------------------|
D|--7---------------10----------------|--9--9--9-9-9-9---9-9--9-9-----|
A|------------------------------------|--7--7--7-7-7-7---7-7--7-7-----|
E|------------------------------------|--0--0--0-0-0-0---0-0--0-0-12\-|

Pré-Refrão:

(Guitarra 1)
E|-----------------------------------------------------------------|
B|-----------------------------------------------------------------|
G|-----------------------------------------------------------------|
D|--2--4--5--7--9---2--4--5--7--9----------------------------------|
A|--0--2--3--5--7---0--2--3--5--7---2--4--6--7--9---2--4--6--7--9--|
E|----------------------------------0--2--4--5--7---0--2--4--5--7--|

E|----------------------------------------------------|
B|----------------------------------------------------|
G|----------------------------------------------------|
D|--2--4--5--7--9---2--4--5--7--9---------------4--6--|
A|--0--2--3--5--7---0--2--3--5--7---2--4--6--7--2--4--|
E|----------------------------------0--2--4--5--------|

(Guitarra 2)
E|--0h2p0h2p0h2p0h2p0h2p0h2p0h2p0h2p0h2p0h2p0h2p0h2p0h2p0h2p0h2p0h2p--|
B|--------------------------------------------------------------------|
G|--------------------------------------------------------------------|
D|--------------------------------------------------------------------|
A|--------------------------------------------------------------------|
E|--------------------------------------------------------------------|

E|--2h4p2h4p2h4p2h4p2h4p2h4p2h4p2h4p2h4p2h4p2h4p2h4p2h4p2h4p2h4p2h4p-|
B|-------------------------------------------------------------------|
G|-------------------------------------------------------------------|
D|-------------------------------------------------------------------|
A|-------------------------------------------------------------------|
E|-------------------------------------------------------------------|

E|--0h2p0h2p0h2p0h2p0h2p0h2p0h2p0h2p0h2p0h2p0h2p0h2p0h2p0h2p0h2p0h2p--|
B|--------------------------------------------------------------------|
G|--------------------------------------------------------------------|
D|--------------------------------------------------------------------|
A|--------------------------------------------------------------------|
E|--------------------------------------------------------------------|

E|--------------------|
B|--------------------|
G|--------------------|
D|-----4--6--7--9--11-|
A|--2-----------------|
E|--0--2--4--5--7--9--|

(Guitarra 3)
E|------------------------------------------------------|
B|-----7-7--7-7--7-7-7--7-7------7-7--7-7--7-7-7--7-7---|
G|-----9-7--9-7--9-9-7--9-7------9-7--9-7--9-9-7--9-7---|
D|-----7-7--7-7--7-7-7--7-7------7-7--7-7--7-7-7--7-7---|
A|--0-------------------------0-------------------------|
E|------------------------------------------------------|

E|----------------------------------------------------------------|
B|-----9--9--9--9--9--9--9--9--9------9--9--9--9--9--9--9--9--9---|
G|-----11-9--11-9--11-11-9--11-9------11-9--11-9--11-11-9--11-9---|
D|-----9--9--9--9--9--9--9--9--9------9--9--9--9--9--9--9--9--9---|
A|----------------------------------------------------------------|
E|--0------------------------------0------------------------------|

E|------------------------------------------------------|
B|-----7-7--7-7--7-7-7--7-7------7-7--7-7--7-7-7--7-7---|
G|-----9-7--9-7--9-9-7--9-7------9-7--9-7--9-9-7--9-7---|
D|-----7-7--7-7--7-7-7--7-7------7-7--7-7--7-7-7--7-7---|
A|--0-------------------------0-------------------------|
E|------------------------------------------------------|

E|--------------------|
B|--------------------|
G|--------------------|
D|-----4--6--7--9--11-|
A|--2-----------------|
E|--0--2--4--5--7--9--|

Refrão:
E|-------------------------------------------------------------------|
B|-------------------------------------------------------------------|
G|--7-7-7-7-7-7-7-7-7-7-7-7-7-7-7-7-6-6-6-6-6-6-6-6-6-6-6-6-6-6-6-6--|
D|--7-7-7-7-7-7-7-7-7-7-7-7-7-7-7-7-7-7-7-7-7-7-7-7-7-7-7-7-7-7-7-7--|
A|--5-5-5-5-5-5-5-5-5-5-5-5-5-5-5-5-4-4-4-4-4-4-4-4-4-4-4-4-4-4-4-4--|
E|-------------------------------------------------------------------|

E|-------------------------------------------------------------------|
B|-------------------------------------------------------------------|
G|--5-5-5-5-5-5-5-5-5-5-5-5-5-5-5-5-------------------------4---6----|
D|--5-5-5-5-5-5-5-5-5-5-5-5-5-5-5-5-2-2-2-2-2-2-2-2-2-2-2-2----------|
A|--3-3-3-3-3-3-3-3-3-3-3-3-3-3-3-3-2-2-2-2-2-2-2-2-2-2-2-2-2---4----|
E|----------------------------------0-0-0-0-0-0-0-0-0-0-0-0----------|

E|-------------------------------------------------------------------|
B|-------------------------------------------------------------------|
G|--7-7-7-7-7-7-7-7-7-7-7-7-7-7-7-7-6-6-6-6-6-6-6-6-6-6-6-6-6-6-6-6--|
D|--7-7-7-7-7-7-7-7-7-7-7-7-7-7-7-7-7-7-7-7-7-7-7-7-7-7-7-7-7-7-7-7--|
A|--5-5-5-5-5-5-5-5-5-5-5-5-5-5-5-5-4-4-4-4-4-4-4-4-4-4-4-4-4-4-4-4--|
E|-------------------------------------------------------------------|

E|-------------------------------------------------------------------|
B|-------------------------------------------------------------------|
G|--5-5-5-5-5-5-5-5-5-5-5-5-5-5-5-5---9------9--9-9------------------|
D|--5-5-5-5-5-5-5-5-5-5-5-5-5-5-5-5---9------9--9-9------------------|
A|--3-3-3-3-3-3-3-3-3-3-3-3-3-3-3-3---7------7--7-7-2--4/6\5---------|
E|----------------------------------0----0-0--------0--2/3\2p0-------|

E|-------------------------------------------------------------------|
B|-------------------------------------------------------------------|
G|--5-5-5-5-5-5-5-5-5-5-5-5-5-5-5-5----------------------------------|
D|--5-5-5-5-5-5-5-5-5-5-5-5-5-5-5-5-2-2-2-2-2-2-2-2-2-2-2-2----------|
A|--3-3-3-3-3-3-3-3-3-3-3-3-3-3-3-3-2-2-2-2-2-2-2-2-2-2-2-2-4/5\4----|
E|----------------------------------0-0-0-0-0-0-0-0-0-0-0-0-2/3\2p0--|

Ponte:

(Guitarra 1)
E|--------------------------------------------|
B|--------------------------------------------|
G|--------------------------------------------|
D|--2--4--5--7--4/5\4----2--4--5--7--4/5\4----|
A|--0--2--3--5--2/3\2p0--0--2--3--5--2/3\2p0--|
E|--------------------------------------------|
                                            
E|--------------------------------------------|
B|--------------------------------------------|
G|--------------------------------------------|   (2x)
D|--------------------------------------------|
A|--2--4--6--7--4/5\4----2--4--6--7--4/5\4----|
E|--0--2--4--5--2/3\2p0--0--2--4--5--2/3\2p0--|

E|--------------------------------------------|
B|--------------------------------------------|
G|--------------------------------------------|
D|--2--4--5--7--4/5\4----2--4--5--7--4/5\4----|
A|--0--2--3--5--2/3\2p0--0--2--3--5--2/3\2p0--|
E|--------------------------------------------|

(Guitarra 2)
E|--0--0--0--0--0--0--0--0--0--0--0--0--0--0--0--0---------------|
B|--13-13-13-12-12-12-10-10-10-10-13-13-12-12-10-10--------------|
G|---------------------------------------------------------------|
D|---------------------------------------------------------------|
A|---------------------------------------------------------------|
E|---------------------------------------------------------------|

E|--0--0--0--0--0--0--0--0--0--0--0--0--0--0--0--0---------------|
B|--12-12-12-10-10-10-9--9--9--9--12-12-10-10-9--9---------------|
G|---------------------------------------------------------------|
D|---------------------------------------------------------------|
A|---------------------------------------------------------------|
E|---------------------------------------------------------------|

E|--0--0--0--0--0--0--0--0--0--0--0--0--0--0--0--0---------------|
B|--13-13-13-12-12-12-10-10-10-10-13-13-12-12-10-10--------------|
G|---------------------------------------------------------------|
D|---------------------------------------------------------------|
A|---------------------------------------------------------------|
E|---------------------------------------------------------------|

E|--------------------------------------------------------|
B|--------------------------------------------------------|
G|----9------9--9-9---------------9------9--9-9----4--6---|
D|----9------9--9-9---------------9------9--9-9-----------|
A|----7------7--7-7-2--4/6\5------7------7--7-7----2--4---|
E|--0----0-0--------0--2/3\2p0--0----0-0--------0---------|
Composição de Foo Fighters
Colaboración y revision:
  • Élison Duarte
1.018 reproducciones
  • Simplificar cifra
    • ½ Tono
    • A
    • Bb
    • B
    • C
    • Db
    • D
    • Eb
    • E
    • F
    • F#
    • G
    • Ab
  • Adicionar à lista

    0 comentarios

    Ver todos os comentários
    00:00 / 00:00
    outros vídeos desta música
    repetir qualidade Automático
    Outros vídeos desta música
    00:00 / 00:00
    Automático
    OK