Cifra Club

Aprenda

A320

Foo Fighters

Tablatura: Principal (guitarra)
tono: G


INTRO
(Gtr. 1)
e||---------------------------------||
B||---------------------------------||
G||---------------------------------||
D||---------------------------------||
A||-----5----5----4----4-5-4-2-0----||
E||--3----3----3----3------------0--||

(Gtr. 2 - Overlaps Gtr. 1)
e||---------------------------------||
B||---------------------------------||
G||-----7----7----6----6-7-6-4-2-0--||
D||--5----5----5----5---------------||
A||---------------------------------||
E||---------------------------------||

Then both guitars stop halfway the 4th time.

(Gtr. 1)
e||--------------------||
B||--------------------||
G||--------------------||
D||--------------------||
A||-----5-----5-----4--||
E||--3-----3-----3-----||

(Gtr. 2)
e||--------------------||
B||--------------------||
G||-----7-----7-----6--||
D||--5-----5-----5-----||
A||--------------------||
E||--------------------||


VERSE
(Gtr. 1)
e||---------------------------------|-----------------||
B||---------------------------------|-----------------||
G||---------------------------------|-----------------||
D||---------------------------------|-----------------||
A||-----5----5----4----4-5-4-2-0----|----5----5----4--||
E||--3----3----3----3-------------0-|-3----3----3-----||
  (3x)

(Gtr. 2)
     G       D       G       D      G      D      C     C(fret 4)
e||--3-------2-------3-------2------3------0-----------------||
B||--3-------3-------3-------3------3------3------1-----4----||
G||--0-------0-------0-------0------0------2------0-----0----||
D||--0----------------0---------------0-------------2-----5--||
A||--2----------------2---------------2------------3-----6---||
E||--3----------------3---------------3----------------------||


VOCALS BEGIN!
(Gtr. 1)
e||---------------------------------|-----------------||
B||-----3----3----2----2-3-2-0------|----3----3----2--||
G||--0----0----0----0-----------2-0-|-0----0----0-----||
D||---------------------------------|-----------------||
A||---------------------------------|-----------------||
E||---------------------------------|-----------------||
  (3x)

(Gtr. 2)
     G       D       G       D      G      D      C     C(fret 4)
e||--3-------2-------3-------2------3------0-----------------||
B||--3-------3-------3-------3------3------3------1-----4----||
G||--0-------0-------0-------0------0------2------0-----0----||
D||--0----------------0---------------0-------------2-----5--||
A||--2----------------2---------------2------------3-----6---||
E||--3----------------3---------------3----------------------||


BRIDGE
e||------2-----3-----2-----3-|-3-----------||
B||--3-----3------3-----3----|----3--------||
G||--------------------------|-------2--0--||
D||--------------------------|-------------||
A||--------------------------|-------------||
E||--------------------------|-------------||
  (4x)


BRIDGE 2 (Gtr. 1)
e||------2------3------5------7--||
B||--3------3------3------3------||
G||------------------------------||
D||------------------------------||
A||------------------------------||
E||------------------------------||


CHORUS 
(Both Guitars)
e||-------------------------------------------------------------|------------------------||
B||-------------------------------------------------------------|------------------------||
G||-------------------------------------------------------------|------------------------||
D||--------------------------------3-3--3-3--3-3--3-3--3-3--3-3-|------------------------||
A||-------22--55--88---------------3-3--3-3--3-3--3-3--3-3--3-3-|-------22---55---10-10--||
E||--33----------------------------1-1--1-1--1-1--1-1--1-0--1-0-|-33---------------------||
  (5x)


OUTRO
(Gtr. 1)
e||---------------------------------------------------------------||
B||---------------------------------------------------------------||
G||---------------------------------------------------------------||
D||---------------------------------------------------------------||
A||--2-2-2-3-5-5-5-0-0-2-0--------5-5-5-6-8-8-3-3-3-5-6-6----532--||
E||---------------------------------------------------------------||

(Gtr. 2)
     G             F               G             F
e||--3-3-3-3-3-3-3-1-1-1-1-1-1-1-0-3-3-3-3-3-3-3-1-1-1-1-1-1-1--||
B||--3-3-3-3-3-3-3-1-1-1-1-1-1-1-0-3-3-3-3-3-3-3-1-1-1-1-1-1-1--||
G||--0-0-0-0-0-0-0-2-2-2-2-2-2-2-0-0-0-0-0-0-0-0-2-2-2-2-2-2-2--||
D||--0-0-0-0-0-0-0-3-3-3-3-3-3-3-0-0-0-0-0-0-0-0-3-3-3-3-3-3-3--||
A||--2-2-2-2-2-2-2-3-3-3-3-3-3-3-0-2-2-2-2-2-2-2-3-3-3-3-3-3-3--||
E||--3-3-3-3-3-3-3-1-1-1-1-1-1-1-0-3-3-3-3-3-3-3-1-1-1-1-1-1-1--||
Composição de Foo Fighters
135 reproducciones
    • ½ Tono
    • A
    • Bb
    • B
    • C
    • Db
    • D
    • Eb
    • E
    • F
    • F#
    • G
    • Ab
  • Adicionar à lista

    0 comentarios

    Ver todos os comentários
    00:00 / 00:00
    outros vídeos desta música
    repetir qualidade Automático
    Outros vídeos desta música
    00:00 / 00:00
    Automático
    OK