Enviar cifraEntrar

All My Life

Foo Fighters

Acordes: Principal
reproducciones 3.316
Tono: F
Introdução: G5


Primeira Estrofe:

G5
All my life 
I've been searching for something 
Something never comes 
Never leads to nothing 
Nothing satisfies 
But I'm getting close 
Closer to the prize 
At the end of the rope 
All night long 
I dream of the day 
When it comes around 
Then it's taken away 
Leaves me with the feeling 
That I feel the most 
The feeling comes to life 
When I see your ghost


Riff 1:  Gm  C5
         Gm  C#5-


   Gm                      C5
E|------------------------------------------|
B|-------------------------1--1-------------|
G|-3-3-3-0-3-3--0-3-3-0-3--0--0-------------|
D|-0-0-0-0-0-0--0-0-0-0-0-------------------|
A|-------------------------3--3-------------|
E|-3-3-3-3-3-3--3-3-3-3-3-------------------|


   Gm                    C#5-
E|------------------------------------------|
B|-----------------------2--2---------------|
G|-3-3-0-3-3--0-3-3-0-3--0--0---------------|
D|-0-0-0-0-0--0-0-0-0-0---------------------|
A|-----------------------4--4---------------|
E|-3-3-3-3-3--3-3-3-3-3---------------------|


   Gm                    C5
E|------------------------------------------|
B|-----------------------1--1---------------|
G|-3-3-0-3-3--0-3-3-0-3--0--0---------------|
D|-0-0-0-0-0--0-0-0-0-0---------------------|
A|-----------------------3--3---------------|
E|-3-3-3-3-3--3-3-3-3-3---------------------|


   Gm                    C#5-
E|------------------------------------------|
B|-----------------------2-2-2-2-2----------|
G|-3-3-0-3-3--0-3-3-0-3--0-0-0-0-0----------|
D|-0-0-0-0-0--0-0-0-0-0---------------------|
A|-----------------------4-4-4-4-4----------|
E|-3-3-3-3-3--3-3-3-3-3---------------------|



Segunda Estrofe:

  P.M    . . .     .     . . .

E|------------------------------------------|
B|---------------------------------1--1-----|
G|----3---------3-----3---------3--0--0-----|
D|------------------------------------------|
A|---------------------------------3--3-----|
E|-3-----0-3-3-----3-----0-3-3--------------|


  P.M    . . .     .     . . .

E|------------------------------------------|
B|---------------------------------2--2-----|
G|----3---------3-----3---------3--0--0-----|
D|------------------------------------------|
A|---------------------------------4--4-----|
E|-3-----0-3-3-----3-----0-3-3--------------|


  P.M    . . .     .     . . .

E|------------------------------------------|
B|---------------------------------1--1-----|
G|----3---------3-----3---------3--0--0-----|
D|------------------------------------------|
A|---------------------------------3--3-----|
E|-3-----0-3-3-----3-----0-3-3--------------|


  P.M    . . .     .     . . .

E|------------------------------------------|
B|---------------------------------2-2-2-2-2|
G|----3---------3-----3---------3--0-0-0-0-0|
D|------------------------------------------|
A|---------------------------------4-4-4-4-4|
E|-3-----0-3-3-----3-----0-3-3--------------|


 Gm                        C5
Come down don't you resist
 Gm                            C#5-
You have such a delicate wrist 
Gm                       C5
And if I give it a twist 
 Gm                                     C#5-
Something to hold when I lose my breath 
 Gm                           C5
Will I find something in that 
 Gm                         C#5-
So give me just what I need 
Gm                      C5
Another reason to bleed 
Gm
One by one hidden up my sleeve 
G5
One by one hidden up my sleeve


Primeiro Refrão:

 Eb                          G5/D
Hey don't let it go to waste 
 
I love it but I hate the taste 
 C5     F5         Bb5
Weight keeping me down 
 Eb                          G5/D
Hey don't let it go to waste 
 
I love it but I hate the taste 
 C5     F5         Bb5
Weight keeping me down 


Riff 2: 


   Gm                      C5
E|------------------------------------------|
B|-------------------------1--1-------------|
G|-3-3-3-0-3-3--0-3-3-0-3--0--0-------------|
D|-0-0-0-0-0-0--0-0-0-0-0-------------------|
A|-------------------------3--3-------------|
E|-3-3-3-3-3-3--3-3-3-3-3-------------------|


   Gm                    C#5-
E|------------------------------------------|
B|-----------------------2-2-2-2-2----------|
G|-3-3-0-3-3--0-3-3-0-3--0-0-0-0-0----------|
D|-0-0-0-0-0--0-0-0-0-0---------------------|
A|-----------------------4-4-4-4-4----------|
E|-3-3-3-3-3--3-3-3-3-3---------------------|



Terceira Estrofe:

 Gm                    C5
Will I find a believer 
Gm                       C#5-
Another one who believes 
Gm                     C5
Another one to deceive  
Gm                             C#5-
Over and over down on my knees 
Gm                  C5
If I get any closer 
Gm                      C#5-
And if you open up wide 
Gm                       C5
And if you let me inside 
Gm
On and on I've got nothing to hide 
G5
On and on I've got nothing to hide


Segundo Refrão:

 Eb                          G5/D
Hey don't let it go to waste 
 
I love it but I hate the taste 
 C5     F5         Bb5
Weight keeping me down 
 Eb                          G5/D
Hey don't let it go to waste 
 
I love it but I hate the taste 
 C5     F5         Bb5
Weight keeping me down 

( Gm  C5  Gm  C#5- )


Ponte: G5

G5
All my life 
I've been searching for something 
Something never comes 
Never leads to nothing 
Nothing satisfies 
But I'm getting close 
Closer to the prize 
At the end of the rope 

(Riff 3)


E|------------------------------------------------------|
B|-3------3------3------3-------------------------------|
G|-5b7~---5b7~---5b7~---5b7-----------------------------|
D|------------------------------------------------------|
A|------------------------------------------------------|
E|------------------------------------------------------|


All night long 
I dream of the day 
When it comes around 
Then it's taken away 
Leaves me with the feeling 
That I feel the most 
The feeling comes to life 
When I see your ghost 

( G5 )

I'm done
Done and I'm under the next one


Final:

 Eb                          G5/D
Hey don't let it go to waste 
 
I love it but I hate the taste 
 C5     F5         Bb5
Weight keeping me down 
 Eb                          G5/D
Hey don't let it go to waste 
 
I love it but I hate the taste 
 C5     F5         Bb5  G5
Weight keeping me down 

Done done and under the next one 

Done I'm done and I'm under the next

(Riff 4)


E|-6-------8------8-------------------------------------|
B|-9b11~~--11b13--11b13---------------------------------|
G|------------------------------------------------------|
D|------------------------------------------------------|
A|------------------------------------------------------|
E|------------------------------------------------------|


E|-6-------9------9-------------------------------------|
B|-9b11~~--12b14--12b14---------------------------------|
G|------------------------------------------------------|
D|------------------------------------------------------|
A|------------------------------------------------------|
E|------------------------------------------------------|


E|-6-------8------8-------------------------------------|
B|-9b11~~--11b13--11b13---------------------------------|
G|------------------------------------------------------|
D|------------------------------------------------------|
A|------------------------------------------------------|
E|------------------------------------------------------|


E|-6-------9------9--------10----10---------------------|
B|-9b11~~--12b14--12b14----13b15-13b15------------------|
G|------------------------------------------------------|
D|------------------------------------------------------|
A|------------------------------------------------------|
E|------------------------------------------------------|
  • 1
  • 2
  • 3
  • 4
  • 5
  • 6
  • 7
  • 8
  • 9
  • 10
  • 11
  • 12
    Acordes para:
      Composición: Foo FightersColaboración y revision:

      0 comentarios

        mostrar mas comentarios

        ¿Conseguiste tocar?

        23tocaron2aún no

        ¡Grave un vídeo tocando All My Life y envie para nosotros!

        00:00 / 00:00
        outros vídeos desta música
        repetirqualidadeautomática
        • automática
        Outro vídeos desta música
          Capítulos
          • Tocando a música
          • Dicas Iniciais e Configurações
          • Acordes Introdução
          • Tocando Introdução
          • Introdução
          • Acordes Riff 1
          • Tocando Primeira Estrofe
          • Ensinando Riff 1
          • Ensinando Segunda Estrofe
          • Tocando Segunda Estrofe
          • Ensinando Segunda Estrofe
          • Acordes Refrão
          • Tocando Primeiro Refrão
          • Ensinando Refrão
          • Dicas Riff 2
          • Tocando Riff 2
          • Ensinando Riff 2
          • Dicas da música
          • Tocando Ponte - Final
          • Ensinando Riff 3
          • Ensinando Riff 4
          • Encerramento
          • Ficha técnica
          00:00 / 00:00
          automática
          • automática
          3 versiones de Contrabajoreproduccionescontribuciones
          1 versión de Bateríareproduccionescontribuciones
          cerrarplay/pause subir/bajar velocidad
            acordes
            cerrar
            OK
            Feedback