Cifra Club

Aprenda

Butterflies

Foo Fighters

Tablatura: Principal (guitarra)
tono: A
(Normal Tuning)


Intro/Verse
     A       D       A       D       A       G
e||----------2-2-2-2---------2-2-2-2---------3-3-3-3--||
B||--2-2-2-2-3-3-3-3-2-2-2-2-3-3-3-3-2-2-2-2-3-3-3-3--||
G||--2-2-2-2-2-2-2-2-2-2-2-2-2-2-2-2-2-2-2-2-0-0-0-0--||
D||--2-2-2-2-0-0-0-0-2-2-2-2-0-0-0-0-2-2-2-2-0-0-0-0--||
A||--0-0-0-0---------0-0-0-0---------0-0-0-0-2-2-2-2--||
E||------------------------------------------3-3-3-3--||


Pre-Chorus
     F#5       E               F#5       F5
e||------------------0-------|----------------------------||
B||----------------0---0---0-|----------------------------||
G||----------------------1---|----------------------------||
D||--4-4--4-4--2-------------|-4-4--4-4--3-3-3-3-3-3-3-3--||
A||--4-4--4-4--2-------------|-4-4--4-4--3-3-3-3-3-3-3-3--||
E||--2-2--2-2--0-------------|-2-2--2-2--1-1-1-1-1-1-1-1--||
  (3x)


Verse


Chorus
e||----------------------------------|------------------||
B||----------------------------------|------------------||
G||----------------------------------|------------------||
D||--4-4--4-4--2--------3-2--------3-|-3-3-3-3-3-3-3-3--||
A||--4-4--4-4--2--------3-2--------3-|-3-3-3-3-3-3-3-3--||
E||--2-2--2-2--0--3-4-0---0--3-4-0---|-1-1-1-1-1-1-1-1--||
  (3x)


Verse


Chorus


Solo
e||--------------------------------------------------------------------|
B||--------------------------------------------------------------------|
G||--9-9-9-9-11-11-11-11-9-9-9-9-11-11-11-11-9-9-9-9-12-12-12-12-12-12-|
D||--------------------------------------------------------------------|
A||--------------------------------------------------------------------|
E||--------------------------------------------------------------------|

e|--------------------------------------------------------------------------||
B|-10-10-10-10-------------10-10-10-10-------------10-10-10-10-12-10-8-8-8--||
G|-------------11-11-11-11-------------11-11-11-11--------------------------||
D|--------------------------------------------------------------------------||
A|--------------------------------------------------------------------------||
E|--------------------------------------------------------------------------||


Chorus
Colaboración y revision:
  • Patrick Alves
97 reproducciones
    • ½ Tono
    • A
    • Bb
    • B
    • C
    • Db
    • D
    • Eb
    • E
    • F
    • F#
    • G
    • Ab
  • Adicionar à lista

    0 comentarios

    Ver todos os comentários
    00:00 / 00:00
    outros vídeos desta música
    repetir qualidade Automático
    Outros vídeos desta música
    00:00 / 00:00
    Automático
    OK