Cifra Club

Aprenda

Congregation

Foo Fighters

Tablatura: Principal (guitarra)
tono: G
Intro:

E|----------------------|
B|-3---3-------3---2----|
G|-0---0---0---2---2----|
D|-----0---2---0---2----|
A|-2-------2-------0----|
E|-3---2---0------------|

Verso (Base):

E|----------------------|
B|-3---3-------3---2----|
G|-0---0---0---2---2----|
D|-----0---2---0---2----|
A|-2-------2-------0----|
E|-3---2---0------------|

Verso (Solo):

E|-----------------------------------------------|
B|-----------------------------------------------|
G|-11b12r11--9--7--7-9-7-9b11-6--------11-6------|
D|---------------------------------9---------9-7-|
A|-----------------------------------------------|
E|-----------------------------------------------|

E|-----------------------------------------------|
B|-----------------------------------------------|
G|-11b12r11--9--7--7-9-7-9b11-6------------------|
D|---------------------------------9-7----7h9-7--|
A|-----------------------------------------------|
E|-----------------------------------------------|

Pré-Refrão:

E|-0-----3--2--3------|
B|-0--------3--------2|
G|-0--0--0--2--0--0--2|
D|-2--2--0--0--2--0--2|
A|-2--2--2-----2--2--0|
E|-0--0--3-----0--3---|

Refrão (Solo):

E|---------------------------------|
B|--------10-----------------------|
G|-7h9s11-----7h9s11-7--7h9s11-----|
D|-----------------------------10--|
A|---------------------------------|
E|---------------------------------|

Refrão (Base):

E|----0--0--|
B|-3--1--0--|
G|-2--2--0--|
D|-0--2--2--|
A|----0--2--|
E|-------0--|

Ponte 2x:

E|----------------------|
B|-3---3-------3---2----|
G|-0---0---0---2---2----|
D|-----0---2---0---2----|
A|-2-------2-------0----|
E|-3---2---0------------|

Solo (Base):

E|-----3--2-| 3x
B|-----3--3-|
G|--0--0--2-|
D|--2--0--0-|
A|--2--2----|
E|--0--3----|

E|------2-| 
B|------3-|
G|--0---2-|
D|--2---0-|
A|--2-----|
E|--0-----|

E|-------| 
B|--2----|
G|--2----|
D|--2----|
A|--0----|
E|-------|

Solo de Guitarra: 

E|-0-0-0-0-0-0-0-0-0-0-0-0-0-0-0-0-10----10-10----------------------------|
B|-5-5-5-7-5-5-5-8-8-7-7-5-5-3-3-0-10h12-12-10h12-10----------------------|
G|---------------------------------------------------12-11---11b12r11-----|
D|--------------------------------------------------------------------12--|
A|------------------------------------------------------------------------|
E|------------------------------------------------------------------------|

E|---0---0-0----------------------3-----7------10-------14-----|
B|---5---3-0-0-0--0-0-0-0-0-0----------------------------------|
G|-----------2/4--4-4-4-4-2-0--2/4---4/7---7/11----11/14-------|
D|-------------------------------------------------------------|
A|-------------------------------------------------------------|
E|-------------------------------------------------------------|

E|---0-------------------------------15-15-15-17-17-19-19-14-14-14-14--14---------|
B|---17---17-15----12----------------15-15-15-15-15-15-15-15-15-15-15--15--17--15-|
G|--------------14---12-14----12--------------------------14-14-14-14--14--14--14-|
D|-------------------------14----14-----------------------------------------------|
A|--------------------------------------------------------------------------------|
E|--------------------------------------------------------------------------------|

E|---------------------------------------------------------------------------|
B|---5--------8-------12--------15-----------------17------------------------|
G|---7b9------10b12---14b16-----17b19--------------19b21---------------------|
D|---------------------------------------------------------------------------|
A|---------------------------------------------------------------------------|
E|---------------------------------------------------------------------------|

Breakdown (Base):

E|-------------------------------------------|
B|------------------------(5)(5)(5)(5)(5)(5)-|
G|-7-7-7-7-7-7-7-7-7-7-7-7-7b-7b-7b-7b-7b-7b-|
D|-------------------------------------------|
A|-------------------------------------------|
E|-------------------------------------------|

E|---------------------------------------------------------------------------------------------|
B|---------------------------------------------------------------------------------------------|
G|-7-7-7-7-7-7-7-7-7-7-7-7-7-7-7-5-5-5-5-5-5-5-5-5-5-5-5-5-5-5-5-5-4-4-4-4-4-4-4-4-4-4-4-4-4-4-|
D|-7-7-7-7-7-7-7-7-7-7-7-7-7-7-7-5-5-5-5-5-5-5-5-5-5-5-5-5-5-5-5-5-5-5-5-5-5-5-5-5-5-5-5-5-5-5-|
A|---------------------------------------------------------------------------------------------|
E|---------------------------------------------------------------------------------------------|

E|--------------------------------------------------------------------------------------------|
B|--------------------------------------------------------------------------------------------|
G|-7-7-7-7-7-7-7-7-7-7-7-7-7-10-10-10-10-10-10-10-10-10-10-10-10-10-12-12-12-12-12-12-12-12-12|
D|-7-7-7-7-7-7-7-7-7-7-7-7-7-10-10-10-10-10-10-10-10-10-10-10-10-10-12-12-12-12-12-12-12-12-12|
A|--------------------------------------------------------------------------------------------|
E|--------------------------------------------------------------------------------------------|

Breakdown (Solo):

E|----------------------------------------------------------|
B|-------6-----------------------------------------------6--|
G|-7-5-7----7-5-7----7-5-7-----7-5-7-------------5s7-5-7----|
D|----------------7---------6--------5--5-5-3---------------|
A|--------------------------------------------5-------------|
E|----------------------------------------------------------|
Colaboración y revision:
  • Jorge André
  • Élison Duarte
579 reproducciones
  • Simplificar cifra
    • ½ Tono
    • A
    • Bb
    • B
    • C
    • Db
    • D
    • Eb
    • E
    • F
    • F#
    • G
    • Ab
  • Adicionar à lista

    0 comentarios

    Ver todos os comentários
    00:00 / 00:00
    outros vídeos desta música
    repetir qualidade Automático
    Outros vídeos desta música
    00:00 / 00:00
    Automático
    OK