Cifra Club

Aprenda

Drowning

Foo Fighters

Tablatura: Principal (guitarra)
tono: A
Riff 1: 
g:-------------------------------------------| 
d:-------------------------------------------| 
a:-------------------------------------------| 
e:2-2-2-2-2---------------5-5-5-5-5-2-2-2-2-2| 
b:----------2-2-2-2-2-2-2--------------------| 
 
Riff 2: 
g:-------------------| 
d:-------------------| 
a:4---2---0---0---0h2| 
e:-------------------| 
b:-------------------| 
 
Riff 3: 
g:---------------------------------------------| 
d:---------------------------------------------| 
a:---------------------------------------------| 
e:2-2-2-2-2-4-4-4-4-4-4-5-5-5-5-5-2-2-2-2-2-2-2| 
b:---------------------------------------------| 
 
Riff 4: 
g:---------------------| 
d:---------------------| 
a:--4---4----4-4-4-4-4/| 
e:---------------------| 
b:2---2---2------------| 
 
Fill: 
g:-------| 
d:-------| 
a:-------| 
e:2-2-2-2| 
b:-------|
Colaboración y revision:
  • Felipe Mardegan
29 reproducciones
    • ½ Tono
    • A
    • Bb
    • B
    • C
    • Db
    • D
    • Eb
    • E
    • F
    • F#
    • G
    • Ab
  • Adicionar à lista

    0 comentarios

    Ver todos os comentários
    00:00 / 00:00
    outros vídeos desta música
    repetir qualidade Automático
    Outros vídeos desta música
    00:00 / 00:00
    Automático
    OK