Cifra Club

Aprenda

End Over End

Foo Fighters

Tablatura: Principal (guitarra)
tono: C
Standard Tuning
Verse
---------------|-----------------|-----------------|
--3--3--3---3--|--3--3--3--3--3--|--3--3--3--3--3--|
--2--2--2---2--|--2--2--2--2--2--|--2--2--2--2--2--|
--0--0--0---0--|--3--3--3--x--3--|--x--x--x--x--x--|
----------3----|-----------------|--3--3--3--0--3--|
---------------|-----------------|-----------------|

|--------------|
|--3--3--3--3--|
|--2--2--2--2--|
|--0--0--0--0--|
|--x--x--x--x--|
|--3--3--3--3--|

Pre-Chorus
|--------------------------|   |--------------------------|
|--3--3--3--3--3--3--3--3--|   |--3--3--3--3--3--3--3--3--|
|--2--2--2--2--2--2--2--2--|X2 |--2--2--2--2--2--2--2--2--| X2
|--0--0--0--0--0--0--0--0--|   |--x--x--x--x--x--x--x--x--|
|--------------------------|   |--3--3--3--3--3--3--3--3--|
|--------------------------|   |--------------------------|

|--------------------------|    |--------------------------|
|--3--3--3--3--3--3--3--3--|    |--------------------------|
|--2--2--2--2--2--2--2--2--| X2 |--------------------------|
|--0--0--0--0--0--0--0--0--|    |--3--3--3--3--5--5--5--5--|
|--------------------------|    |--3--3--3--3--5--5--5--5--|
|--------------------------|    |--1--1--1--1--3--3--3--3--|

Chorus (just the chords here)
|-----|-----|-----|-----|
|--3--|--3--|--3--|--3--|
|--2--|--2--|--2--|--2--|
|--0--|--3--|--x--|--0--|
|-----|-----|--3--|--x--|
|-----|-----|-----|--3--|


Repeat verse

Pre-Chorus again (new part added)
|---------------------------------|
|---------------------------------|
|--11--11--11--11--11--11--11--9--|
|--x---x---x---x---x---x---x---x--|
|--9---9---9---9---9---9---9---7--|
|---------------------------------|

|------------------------------|
|------------------------------|
|--7--7--7--7--7--7--7--7--11--|
|--x--x--x--x--x--x--x--x--x---|
|--5--5--5--5--5--5--5--5--9---|
|------------------------------|

|------------------|--------------|
|------------------|--------------|
|--12--12--12--12--|--9--9--7--7--|
|--x---x---x---x---|--x--x--x--x--|
|--10--10--10--10--|--7--7--5--5--|
|------------------|--------------|

|---------------------------------|
|---------------------------------|
|--11--11--11--11--11--11--11--9--|
|--x---x---x---x---x---x---x---x--|
|--9---9---9---9---9---9---9---7--|
|---------------------------------|

|-----------------------------|
|-----------------------------|
|--7--7--7--7--7--7--7--7--7--|
|--x--x--x--x--x--x--x--x--x--|
|--5--5--5--5--5--5--5--5--5--|
|-----------------------------|

|--------------------------|
|--------------------------|
|--------------------------|
|--3--3--3--3--5--5--5--5--|
|--3--3--3--3--5--5--5--5--|
|--1--1--1--1--3--3--3--3--|

Repeat Chorus (new lead part added)
|--10--10--10--10--10--10--10--8---|--8---8---8---8---8---8---8---8---|
|--10--10--10--10--10--10--10--10--|--10--10--10--10--10--10--10--10--|
|----------------------------------|----------------------------------|
|----------------------------------|----------------------------------|
|----------------------------------|----------------------------------|
|----------------------------------|----------------------------------|

|--8--8--8--8--8--8--8--7--|--7--7--7--8--8--7--7---7---|
|--8--8--8--8--8--8--8--8--|--8--8--8--8--8--8--10--10--|
|--------------------------|----------------------------|
|--------------------------|----------------------------|
|--------------------------|----------------------------|
|--------------------------|----------------------------|

Repeat this 4 times.

Lead break
|--------------------------------------------------|
|--------------------------------------------------|
|--11--11--11--12--12--12--14--14--14--17--17--17--|
|--x---x---x---x---x---x---x---x---x---x---x---x---|
|--9---9---9---10--10--10--12--12--12--15--15--15--|
|--------------------------------------------------|

|-------------------------------------|
|-------------------------------------|
|--12--12--14--14--16--16--16b17--14--|
|--x---x---x---x---x---x---x------x---|
|--10--10--12--12--14--14--14-----12--|
|-------------------------------------|

|--------------------------------------------------|
|--------------------------------------------------|
|--11--11--11--12--12--12--14--14--14--17--17--17--|
|--x---x---x---x---x---x---x---x---x---x---x---x---|
|--9---9---9---10--10--10--12--12--12--15--15--15--|
|--------------------------------------------------|

|-------------------------------|
|-------------------------------|
|--9--11--10--9--7--5--7--9--7--|
|--x--x---x---x--x--x--x--x--x--|
|--7--9---8---7--5--3--5--7--5--|
|-------------------------------|
Composição de Foo Fighters
Colaboración y revision:
  • Guilherme Rosa
214 reproducciones
    • ½ Tono
    • A
    • Bb
    • B
    • C
    • Db
    • D
    • Eb
    • E
    • F
    • F#
    • G
    • Ab
  • Adicionar à lista

    0 comentarios

    Ver todos os comentários
    00:00 / 00:00
    outros vídeos desta música
    repetir qualidade Automático
    Outros vídeos desta música
    00:00 / 00:00
    Automático
    OK