Cifra Club

Aprenda

Erase-Replace

Foo Fighters

Tablatura: Principal (guitarra)
tono: G
Intro:
E|----------------------------------------------------|
B|-----------13--10b-------------------11--8b---------|
G|-------------------10-----------------------8-------|
D|-----10------------------------10-------------------|
A|--11------------------11----12----------------10----|
E|----------------------------------------------------|

E|----------------------------------------------------|
B|-----------13---------------------------------------|
G|---------------------------------------------17-----|
D|-----10--------------------15-------15----15----15\-|
A|--12--------------------15----15-14----14-----------|
E|----------------------------------------------------|

E|------------------------------------|
B|------------------------------------|
G|------------------------------------|
D|------------------------------------|
A|-6-6-6-6-6-6-6-6-6-6-6-6-6 (...)----|
E|------------------------------------|

Attention,Pay attention,No mention...
E|--------------------------------------------|
B|--------------------------------------------|
G|--------------------------------------------|
D|--------------------------------------------|
A|-6-6-6-6-6-6----6-----------------------6---|
E|-------------------6----8-8-8-8-8-8-------6-|

Oh no don't talk about it...
E|-------------------------------------------------|
B|-------------------------------------------------|
G|-------------------------------------------------|   Repete até - It goes away!
D|-------------------------------------------------|
A|-6-6-6-6-6-6-6------------------------6-6-6-6-6-6|
E|--------------8-8-8-8-8-8-8-6-6-6-6-6-6----------|

We Made these Promise...
E|-----------------------------------------------------------------------|
B|-----------------------------------------------------------------------|
G|-----------------------------------------------------------------------|
D|---6-6-6-6-6-6-6-6-7-7-7-7-7-7-7-7-8-8-8-8-8-8-8-8-10-10-10-10-10-10-10|
A|-0-6-6-6-6-6-6-6-6-7-7-7-7-7-7-7-7-8-8-8-8-8-8-8-8-10-10-10-10-10-10-10|
E|-0-4-4-4-4-4-4-4-4-5-5-5-5-5-5-5-5-6-6-6-6-6-6-6-6-8--8--8--8--8--8--8-|

A vision,Division,Revision
E|--------------------------------------------|
B|--------------------------------------------|
G|--------------------------------------------|
D|--------------------------------------------|
A|-6-6-6-6-6-6----6-----------------------6---|
E|-------------------6----8-8-8-8-8-8-------6-|

Oh no don't talk about it...
E|-------------------------------------------------|
B|-------------------------------------------------|
G|-------------------------------------------------|   Repete até - It goes away!
D|-------------------------------------------------|
A|-6-6-6-6-6-6-6------------------------6-6-6-6-6-6|
E|--------------8-8-8-8-8-8-8-6-6-6-6-6-6----------|

We Made these Promise...
E|-----------------------------------------------------------------------|
B|-----------------------------------------------------------------------|
G|-----------------------------------------------------------------------|
D|---6-6-6-6-6-6-6-6-7-7-7-7-7-7-7-7-8-8-8-8-8-8-8-8-10-10-10-10-10-10-10|
A|-0-6-6-6-6-6-6-6-6-7-7-7-7-7-7-7-7-8-8-8-8-8-8-8-8-10-10-10-10-10-10-10|
E|-0-4-4-4-4-4-4-4-4-5-5-5-5-5-5-5-5-6-6-6-6-6-6-6-6-8--8--8--8--8--8--8-|

Aaah ah we're better off now...
E|-----------------------------------------------------------------|
B|-----------------------------------------------------------------|
G|-------0---------------0---------------0---------------0---------|
D|-----5-----5---------5-----5---------5-----5---------5-----5-----|
A|---3---------------3---------------3---------------3-------------|
E|-5---------------5---------------4---------------4---------------|

E|-----------------------------------------------------------------|
B|-----------------------------------------------------------------|
G|-------0---------------0---------------0---------------0---------|
D|-----5-----5---------5-----5---------3-----3---------3-----3-----|
A|---3---------------3---------------3---------------3-------------|
E|-0---------------0---------------1---------------1---------------|

E|--------------------------------------------------||
B|-----------13--10b-------------------11--8b-------||
G|-------------------10-----------------------8-----||
D|-----10------------------------10-----------------||  (2x)
A|--11------------------11----12----------------10--||
E|--------------------------------------------------||

We Make these Promise...
E|-----------------------------------------------------------------------|
B|-----------------------------------------------------------------------|
G|-----------------------------------------------------------------------|
D|---6-6-6-6-6-6-6-6-7-7-7-7-7-7-7-7-8-8-8-8-8-8-8-8-10-10-10-10-10-10-10|
A|-0-6-6-6-6-6-6-6-6-7-7-7-7-7-7-7-7-8-8-8-8-8-8-8-8-10-10-10-10-10-10-10|
E|-0-4-4-4-4-4-4-4-4-5-5-5-5-5-5-5-5-6-6-6-6-6-6-6-6-8--8--8--8--8--8--8-|

E|---------------------------------------------------------------------------|
B|---------------------------------------------------------------------------|
G|-17-17-17-17-17-17-17-17-17-17-17-17-17-17-17-17-17-17-17-17-17-17-17-17-17|
D|-x--x--x--x--x--x--x--x--x--x--x--x--x--x--x--x--x--x--x--x--x--x--x--x--x-|
A|-15-15-15-15-15-15-15-15-15-15-15-15-15-15-15-15-15-15-15-15-15-15-15-15-15|
E|---------------------------------------------------------------------------|

E|--------------------------------------------------||
B|-----------13--10b-------------------11--8b-------||
G|-------------------10-----------------------8-----||
D|-----10------------------------10-----------------||
A|--11------------------11----12----------------10--||
E|--------------------------------------------------||

Erase...Replace...Erase...Replace
E|---------------------------------------------------------------------------|
B|---------------------------------------------------------------------------|
G|-17-17-17-17-17-17-17-17-17-17-17-17-17-17-17-17-17-17-17-17-17-17-17-17-17|
D|-x--x--x--x--x--x--x--x--x--x--x--x--x--x--x--x--x--x--x--x--x--x--x--x--x-|
A|-15-15-15-15-15-15-15-15-15-15-15-15-15-15-15-15-15-15-15-15-15-15-15-15-15|
E|---------------------------------------------------------------------------|

Oooohhhhooooooo.....
E|-------------------------------------------------|
B|-16-16-16-16-16-16-16-16-18-18-18-18-18-18-18-18-|
G|-x--x--x--x--x--x--x--x--x--x--x--x--x--x--x--x--|
D|-13-13-13-13-13-13-13-13-15-15-15-15-15-15-15-15-|
A|-------------------------------------------------|
E|-------------------------------------------------|

E|-------------------------------------------------|
B|-20-20-20-20-20-20-20-20-17-17-17-17-17-17-17-17-|
G|-x--x--x--x--x--x--x--x--x--x--x--x--x--x--x--x--|
D|-17-17-17-17-17-17-17-17-14-14-14-14-14-14-14-14-|
A|-------------------------------------------------|
E|-------------------------------------------------|

Erase...Replace...Erase...Replace
E|-----------------------------------|
B|-13--------13--13--13--13--13--13--|
G|-15b(17)---15b-15b-15b-15b-15b-15b-|
D|-----------------------------------|
A|-----------------------------------|
E|-----------------------------------|

Final:
E|-------------------------------------------------------------------------------|
B|-------------------------------------------------------------------------------|
G|-------------------------------------------------------------------------------|
D|-------------------------------------------------------------------------------|
A|-6-6-6-6-6-6----6-----------------------6-----6-6-6-6-6-6----6-----------------|
E|-------------------6----8-8-8-8-8-8-------6---------------------6---8-8-8-8-8-8|
Composição de Foo Fighters
Colaboración y revision:
  • Knupp Mello
58 reproducciones
    • ½ Tono
    • A
    • Bb
    • B
    • C
    • Db
    • D
    • Eb
    • E
    • F
    • F#
    • G
    • Ab
  • Adicionar à lista

    0 comentarios

    Ver todos os comentários
    00:00 / 00:00
    outros vídeos desta música
    repetir qualidade Automático
    Outros vídeos desta música
    00:00 / 00:00
    Automático
    OK