Cifra Club

Aprenda

Floaty

Foo Fighters

Tablatura: Principal (guitarra)
tono: E
(Normal Tuning)


Gtr. 1 plays the upper part while Gtr. 2 plays bottom part.


Intro
E|-0--0-0-0--0--0-0-0--0--0-0-0--0--0-0-0-|
B|-0--0-0-0--0--0-0-0--0--0-0-0--0--0-0-0-|
G|-8--8-8-8--8--8-8-8--8--8-8-8--8--8-8-8-|
D|-9--9-9-9--9--9-9-9--9--9-9-9--9--9-9-9-|
A|-7--7-7-7--7--7-7-7--7--7-7-7--7--7-7-7-|
E|-0---------0---------0---------0--------|
                                          |
E|-0--0-0-0--0--0-0-0--0--0-0-0--0--0-0-0-|
B|-4--4-4-4--4--4-4-4--4--4-4-4--4--4-4-4-|
G|----------------------------------------|
D|----------------------------------------|
A|----------------------------------------|
E|----------------------------------------|

E|-0--0-0-0--0--0-0-0--0--0-0-0--0--0-0-0-|
B|-0--0-0-0--0--0-0-0--0--0-0-0--0--0-0-0-|
G|-8--8-8-8--8--8-8-8--8--8-8-8--8--8-8-8-|
D|-9--9-9-9--9--9-9-9--9--9-9-9--9--9-9-9-|
A|-7--7-7-7--7--7-7-7--7--7-7-7--7--7-7-7-|
E|-0---------0---------0---------0--------|
                                          |
E|-0--0-0-0--0--0-0-0--0--0-0-0--0--0-0-0-|
B|-4--4-4-4--4--4-4-4--4--4-4-4--4--4-4-4-|
G|----------------------------------------|
D|----------------------------------------|
A|----------------------------------------|
E|----------------------------------------|

E|-0--0-0-0--0--0-0-0--0--0-0-0--0--0-0-0-|
B|-0--0-0-0--0--0-0-0--0--0-0-0--0--0-0-0-|
G|-6--6-6-6--6--6-6-6--6--6-6-6--6--6-6-6-|
D|-7--7-7-7--7--7-7-7--7--7-7-7--7--7-7-7-|
A|-5--5-5-5--5--5-5-5--5--5-5-5--5--5-5-5-|
E|----------------------------------------|
                                          |
E|-0--0-0-0--0--0-0-0--0--0-0-0--0--0-0-0-|
B|-2--2-2-2--2--2-2-2--2--2-2-2--2--2-2-2-|
G|----------------------------------------|
D|----------------------------------------|
A|----------------------------------------|
E|----------------------------------------|

E|-0--0-0-0--0--0-0-0--0--0-0-0--0--0-0-0-|
B|-0--0-0-0--0--0-0-0--0--0-0-0--0--0-0-0-|
G|-4--4-4-4--4--4-4-4--2--2-2-2--2--2-2-2-|
D|-5--5-5-5--5--5-5-5--2--2-2-2--2--2-2-2-|
A|-3--3-3-3--3--3-3-3--0--0-0-0--0--0-0-0-|
E|----------------------------------------|
                                          |
E|-0--0-0-0--0--0-0-0--0--0-0-0--0--0-0-0-|
B|-1--1-1-1--1--1-1-1--1--1-1-1--1--1-1-1-|
G|---------------------2--2-2-2--2--2-2-2-|
D|----------------------------------------|
A|----------------------------------------|
E|----------------------------------------|

Verse
E|----------0------------0------------0------------0-----|
B|------------0------------0------------0------------0---|
G|-8--8-8-8-----8--8-8-8-----8--8-8-8-----8--8-8-8-----8-|
D|-9--9-9-9-----9--9-9-9-----9--9-9-9-----9--9-9-9-----9-|
A|-7--7-7-7-----7--7-7-7-----7--7-7-7-----7--7-7-7-----7-|
E|-0------------0------------0------------0--------------|
                                                         |
E|-0--0-0-0-0-0-0--0-0-0-0-0-0--0-0-0-0-0-0--0-0-0-0-0-0-|
B|-4--4-4-4-4-4-4--4-4-4-4-4-4--4-4-4-4-4-4--4-4-4-4-4-4-|
G|-------------------------------------------------------|
D|-------------------------------------------------------|
A|-------------------------------------------------------|
E|-------------------------------------------------------|
   He           floats       Floats       away

E|----------0------------0--------------0--------------0---|
B|------------0------------0--------------0--------------0-|
G|-6--6-6-6-----6--6-6-6-----6-4--4-4-4-----4-2--2-2-2-----|
D|-7--7-7-7-----7--7-7-7-----7-5--5-5-5-----5-2--2-2-2-----|
A|-5--5-5-5-----5--5-5-5-----5-3--3-3-3-----3-0--0-0-0-----|
E|---------------------------------------------------------|
                                                           |
E|-0--0-0-0-0-0-0--0-0-0-0-0-0-0--0-0-0-0-0-0-0--0-0-0-0-0-|
B|-2--2-2-2-2-2-2--2-2-2-2-2-2-1--1-1-1-1-1-1-1--1-1-1-1-1-|
G|--------------------------------------------2--2-2-2-2-2-|
D|---------------------------------------------------------|
A|---------------------------------------------------------|
E|---------------------------------------------------------|
   On    the    ground    he     comes     back   down


Chorus
E|---------------------------|
B|---------------------------|
G|---4444--2-1----4444--2-1--|
D|---------------------------|
A|---------------------------|
E|-0------------0------------|
                             |
E|---------------------------|
B|---------------------------|
G|---------------------------|
D|-2------------2------------|
A|-2------------2------------|
E|-0------------0------------|

E|---------------------------------|
B|---------------------------------|
G|-------------------------6-6-6-6-|
D|-6-6-6-6-6-6-6-6-7-7-7-7-6-6-6-6-|
A|-6-6-6-6-6-6-6-6-7-7-7-7-4-4-4-4-|
E|-4-4-4-4-4-4-4-4-5-5-5-5---------|
  That's not as big as what's float - ing


Bridge
E|----------------------------------------------------------------|
B|----------------------------------------------------------------|
G|-4-4-4-4-4-4-4--7-7-7-7-7--4-7----------------------------------|
D|-4-4-4-4-4-4-4--7-7-7-7-7--4-7--6-6-6-6-6-6-6---2-2-2---6-6-6-2-|
A|-2-2-2-2-2-2-2--5-5-5-5-5--2-5--6-6-6-6-6-6-6---2-2-2---6-6-6-2-|
E|--------------------------------4-4-4-4-4-4-4---0-0-0---4-4-4-0-|


Gentilmente cedida por : Rodrigo da Cunha Dunder
Composição de Dave Grohl
Colaboración y revision:
  • Guillermo Coquito
377 reproducciones
  • Simplificar cifra
    • ½ Tono
    • A
    • Bb
    • B
    • C
    • Db
    • D
    • Eb
    • E
    • F
    • F#
    • G
    • Ab
  • Adicionar à lista

    0 comentarios

    Ver todos os comentários
    00:00 / 00:00
    outros vídeos desta música
    repetir qualidade Automático
    Outros vídeos desta música
    00:00 / 00:00
    Automático
    OK