Cifra Club

Aprenda

Good Grief

Foo Fighters

Tablatura: Principal (guitarra)
tono: F#
(Drop D Tuning)


Intro/Pre-Verse
e||--------------------------------|-----------------------------|
B||--------------------------------|-----------------------------|
G||--------------------------------|-----------------------------|
D||--------9---7---9---7---7-9---7-|-0-0---9---7---9---7---7-9-7-|
A||--9-9---------------------------|-----------------------------|
D||--------------------------------|-----------------------------|

e|---------------------|------------||
B|---------------------|------------||
G|-6---9~~~--6---9---6-|------9~~~--||
D|---------------------|-9----------||
A|---------------------|------------||
D|---------------------|------------||


Verse
e||-------------------------------------------------------|
B||--3--3--3--3----6--6--6--6-----------------------------|
G||--3--3--3--3----6--6--6--6-----------------------------| (2x)
D||--3--3--3--3----6--6--6--6----3--3--3--3----6--6--6--6-|
A||--1--1--1--1----4--4--4--4----3--3--3--3----6--6--6--6-|
D||------------------------------3--3--3--3----6--6--6--6-|
   When I think about it,   the wind blows Hate it! Hate it!  Hate it!

e|----------------------------------------------------------------------| 
B|--3--3--3--3---6--6--6--6---------------------------------------------|
G|--3--3--3--3---6--6--6--6---------------------------------------------|
D|--3--3--3--3---6--6--6--6---3--3--3--3----6--6--6---1--1--1---3--3--3-|
A|--1--1--1--1---4--4--4--4---3--3--3--3----6--6--6---1--1--1---3--3--3-|
D|----------------------------3--3--3--3----6--6--6---1--1--1---3--3--3-|
  Hate it!     Hate it!      Hate it!      Hate it!

e|---------------------------------------------------|| 
B|---------------------------------------------------||
G|---------------------------------------------------||
D|--6--6--6---1--1--1---3--3--3--6--6--6----1-1-1-1--||
A|--6--6--6---1--1--1---3--3--3--6--6--6----1-1-1-1--||
G|--6--6--6---1--1--1---3--3--3--6--6--6----1-1-1-1--||


Bridge
e||------------------------------------------------------------------|
B||------------------------------------------------------------------|
G||------------------------------------------------------------------|
D||--6--8--6--8--6--8--6--8---3--3--3--3--3---6--8--6--8--6--8--6--8-|
A||--6--8--6--8--6--8--6--8---3--3--3--3--3---6--8--6--8--6--8--6--8-|
E||--6--8--6--8--6--8--6--8---3--3--3--3--3---6--8--6--8--6--8--6--8-|
    
e|--------------------------------------------------------------------------||
B|--------------------------------------------------------------------------||
G|--------------------------------------------------------------------------||
D|-3--3--3--3--6--6--6--6--1--1--1--1---3--3--3--3--6--6--6--6--1--1--1--1--||
A|-3--3--3--3--6--6--6--6--1--1--1--1---3--3--3--3--6--6--6--6--1--1--1--1--||
E|-3--3--3--3--6--6--6--6--1--1--1--1---3--3--3--3--6--6--6--6--1--1--1--1--||


Gentilmente cedida por : Rodrigo da Cunha Dunder (Diguinho)
Composição de Dave Grohl
290 reproducciones
    • ½ Tono
    • A
    • Bb
    • B
    • C
    • Db
    • D
    • Eb
    • E
    • F
    • F#
    • G
    • Ab
  • Adicionar à lista

    0 comentarios

    Ver todos os comentários
    00:00 / 00:00
    outros vídeos desta música
    repetir qualidade Automático
    Outros vídeos desta música
    00:00 / 00:00
    Automático
    OK