Cifra Club

Have It All

Foo Fighters

Tab de bajo: Principal
Já pensou em usar uma coleção de roupas do Cifra Club? Responda as perguntas abaixo e nos ajude nessa missão! →
Intro
G--------
D--------
A-3/5--6-
E--------

G--------------------------------------
D--------------------------------------
A-0000000000000000-55555555-33333/5--6-
E-------------------------------------- x3

G--------------------------------------
D--------------------------------------
A-0000000000000000-55555555-33333h53h5-
E--------------------------------------

Verse 1
G----------------------------------
D----------------------------------
A-00000000000000-3-555-555-333-333-
E---------------------------------- x3

G------------------------------------------------------------
D------------------------------------------------------------
A-00000000000000-3-555-555-3/5h7-5h7p5--7/9-0~------------9\-
E------------------------------------------------------------

Chorus 1
G-------------------------------------
D-------------------------------------
A---------------------555-555-555-555-
E-5--55-5-045--55-5-05---------------- x2

G----------------------------------    ---
D----------------------------------    ---
A----------------------------------    -3-
E-3-33-3532-22-2321-11-1335-55-555- x2 ---

Verse 2
G----------------------------------
D----------------------------------
A-00000000000000-3-555-555-333-333-
E---------------------------------- x3

G------------------------------------------------------------
D-----------------------------4-------4---4h6----------------
A-00000000000000-3-555-55555----7-5h7---7-----------------9\-
E------------------------------------------------------------

Chorus 2
G-------------------------------------
D-------------------------------------
A---------------------555-555-555-555-
E-5--55-5-045--55-5-05---------------- x2

G----------------------------------  
D----------------------------------    
A----------------------------------    
E-3-33-3532-22-2321-11-1335-55-555- x2

G----------------------------------
D----------------------------------
A-3-----------4-4-4420---00---0000-
E---------------------------------- x2

G----------------------------------
D----------------------------------
A-3-/slow slide up to 12 and back\-
E----------------------------------
Solo
G--------------------------------------
D--------------------------------------
A-0000000000000000-55555555-33333/5--6-
E-------------------------------------- x3

G------------------------------------------------------------
D------------------------------------------------------------
A-0000000000000000-55555555-33333h5-5---------------------9\-
E------------------------------------------------------------

Chorus 3
G-------------------------------------
D-------------------------------------
A---------------------555-555-555-555-
E-5--55-5-045--55-5-05---------------- x2

G----------------------------------    ---
D----------------------------------    ---
A----------------------------------    -3-
E-3-33-3532-22-2321-11-1335-55-555- x4 ---

Outro
G-----------------------------------
D-----------------------------------
A-00000000000000000000000000-3/5--6-
E----------------------------------- x8

G--------
D--------
A-3/5--6-
E-------- x7


_______________________________________________________
Contribuição: Gabriel Fernandes do Nascimento(gabrielonline@globo.com)
Composição de Foo Fighters
25 reproducciones

0 comentarios

Ver todos os comentários
00:00 / 00:00
outros vídeos desta música
repetir qualidade Automático
Outros vídeos desta música
00:00 / 00:00
Automático
OK