Cifra Club

Aprenda

Hell

Foo Fighters

Tablatura: Principal (guitarra)
tono: G
Tuning: eBGDAE

Intro
e||--------------------||
B||--------------------||
G||--7-7-7-7-7-7-7-7-7-||
D||--x-x-x-x-x-x-x-x-x-||
A||--5-5-5-5-5-5-5-5-5-||
E||--------------------||


Verse
e||-------------------------------------------||
B||-------------------------------------------||
G||--12-12-12--11--9--7--9-7--5--5-5-5--4--2--||
D||--x--x--x---x---x--x--x-x--x--x-x-x--x--x--||
A||--10-10-10--9---7--5--7-5--3--3-3-3--2--0--||
E||-------------------------------------------||

e||-------------------------------------------||
B||-------------------------------------------||
G||--12-12-12--11--9--7--9-7--5--5-5-5--4--2--||
D||--x--x--x---x---x--x--x-x--x--x-x-x--x--x--||
A||--10-10-10--9---7--5--7-5--3--3-3-3--2--0--||
E||-------------------------------------------||

e||------------------------||
B||------------------------||
G||--12-12-12--11--9--7-7--||
D||--x--x--x---x---x--x-x--||
A||--10-10-10--9---7--5-5--||
E||------------------------||

e||--------------------------------------------------------||
B||--------------------------------------------------------||
G||--5-5-5-5-7-9--9-9-9--11--12-12-12-12-12-11-11-11-11-11-||
D||--x-x-x-x-x-x--x-x-x--x---x--x--x--x--x--x--x--x--x--x--||
A||--3-3-3-3-5-7--7-7-7--9---10-10-10-10-10-9--9--9--9--9--||
E||--------------------------------------------------------||


Chorus
     C           D
e||--0---0---0---2---2---2--||
B||--1---1---1---3---3---3--||
G||--0---0---0---2---2---2--||
D||--2---2---2---0---0---0--||
A||--3---3---3--------------||
E||-------------------------||
"We'll gather around the fire"
"And I don't need the choir"

     A           G           D
e||--0---0---0---3---3---3---2---2---2--||
B||--0---0---0---3---3---3---3---3---3--||
G||--2---2---2---0---0---0---2---2---2--||
D||--2---2---2---0---0---0---0---0---0--||
A||--0---0---0---2---2---2--------------||
E||--------------3---3---3--------------||
"Sing farewell"
"See you in hell"


Outro
e||--------------------------||
B||--------------------------||
G||--14-14-14-14-14-14-14-14-||
D||--x--x--x--x--x--x--x--x--||
A||--12-12-12-12-12-12-12-12-||
E||--------------------------||
Composição de Foo Fighters
Colaboración y revision:
  • Guilherme Rosa
92 reproducciones
    • ½ Tono
    • A
    • Bb
    • B
    • C
    • Db
    • D
    • Eb
    • E
    • F
    • F#
    • G
    • Ab
  • Adicionar à lista

    0 comentarios

    Ver todos os comentários
    00:00 / 00:00
    outros vídeos desta música
    repetir qualidade Automático
    Outros vídeos desta música
    00:00 / 00:00
    Automático
    OK