Cifra Club

Aprenda

In Your Honor

Foo Fighters

Tablatura: Principal (guitarra)
tono: E
Guitar 1
A|------------|
E|-0-let-ring-|

Guitar 2
A|------------|
E|-Pickslides-|

Main Riff
E|-----------------------------------------------------------------|
B|-----------------------------------------------------------------|
G|-----------------9-9-9-9-9-9-9-9-8-8-8-8-8-8-8-8-4-4-4-4-4-4-4-4-|
D|-----------------x-x-x-x-x-x-x-x-x-x-x-x-x-x-x-x-x-x-x-x-x-x-x-x-|
A|-----------------7-7-7-7-7-7-7-7-6-6-6-6-6-6-6-6-2-2-2-2-2-2-2-2-|
E|-0-0-0-0-0-0-0-0-------------------------------------------------|

Chorus
E|--------------------------------------|
B|--------------------------------------|
G|-9-----11-----6-----9-----11-----11^--|
D|-x------x-----x-----x------x------x---|
A|-7------9-----4-----7------9------9^--|
E|---X32----X32---X16---X16----X24----x8|
(You bend the last 8 strums of the last chord)

Ending Guitars
Guitar 1             Guitar 2
E|---------------|   E|-joins------------|
B|---------------|   B|-in---------------|
G|---------------|   G|-later------------|
D|---------------|   D|------------------|
A|---------------|   A|------------------|
E|-007700006609^-|   E|-0000000000000000-|
Composição de Foo Fighters
Colaboración y revision:
  • Guilherme Rosa
235 reproducciones
    • ½ Tono
    • A
    • Bb
    • B
    • C
    • Db
    • D
    • Eb
    • E
    • F
    • F#
    • G
    • Ab
  • Adicionar à lista

    0 comentarios

    Ver todos os comentários
    00:00 / 00:00
    outros vídeos desta música
    repetir qualidade Automático
    Outros vídeos desta música
    00:00 / 00:00
    Automático
    OK