Cifra Club

Aprenda

Let It Die

Foo Fighters

Tablatura: Principal (guitarra)
tono: G
-------------------------------------------------------------------------------
                             LET IT DIE - Foo Fighters
-------------------------------------------------------------------------------
Tuning: Standard


-INTRO- Played once
e||----8-------------------5------||
B||------6-------------------3----||
G||--------0---0---0---0-------0--||
D||--8-----------7---5---5--------||
A||----------8--------------------||
E||-------------------------------||

Then play 11 more times, except you slide up to 8 on the D string. The slide is 
each time it's played, so listen to the song to figure it out.
e||-----8-------------------5------||
B||-------6-------------------3----||
G||---------0---0---0---0-------0--||
D||--/8-----------7---5---5--------||
A||-----------8--------------------||
E||--------------------------------||

-CHORUS-
e||----8-------------------------------------------------------------------------||
B||------6-------------8-----------------11-----------------------8--------------||
G||--------0---0---0-----0---0----0---------0----0----0-----0-------0-----0---0--||
D||--8-----------7---------9---10----/13------13---------12----10-----9-----9----||
A||----------8-------10-----------------------------13---------------------------||
E||------------------------------------------------------------------------------||

e||---------------------------------------------------------------------------------||
B||----6-----------------8----------------11-----------------------8----------------||
G||------0---0---0---0-----0---0----0--------0----0----0-----0-------0-----0---0----||
D||--8-----8-------7---------9---10---/13------13---------12----10-----9-----9---9--||
A||------------8-------10----------------------------13-----------------------------||
E||---------------------------------------------------------------------------------||

-INTRO- x12
e||-----8-------------------5------||
B||-------6-------------------3----||
G||---------0---0---0---0-------0--||
D||--/8-----------7---5---5--------||
A||-----------8--------------------||
E||--------------------------------||

-CHORUS-
e||----8-------------------------------------------------------------------------||
B||------6-------------8-----------------11-----------------------8--------------||
G||--------0---0---0-----0---0----0---------0----0----0-----0-------0-----0---0--||
D||--8-----------7---------9---10----/13------13---------12----10-----9-----9----||
A||----------8-------10-----------------------------13---------------------------||
E||------------------------------------------------------------------------------||

e||---------------------------------------------------------------------------------||
B||----6-----------------8----------------11-----------------------8----------------||
G||------0---0---0---0-----0---0----0--------0----0----0-----0-------0-----0---0----||
D||--8-----8-------7---------9---10---/13------13---------12----10-----9-----9---9--||
A||------------8-------10----------------------------13-----------------------------||
E||---------------------------------------------------------------------------------||

Immediately following the chorus:
(Don't count all the 3's. Just listen to the song, and follow the rhythm.)
e||-------------------------------------------------------------------||
B||-------------------------------------------------------------------||
G||-------------------------------------------------------------------||
D||--5-5-5---------------5--------------------------------------------||
A||--5-5-5---------------5--------------------------------------------||
E||--3-3-3-3-3-3-3-3-3-3-3-3-3-3-3-3-3-3-3-3-3-3-3-3-3-3-3-3-3-3-3-3--||

e||----------------------------------------------------------------------||
B||----------------------------------------------------------------------||
G||----------------------------------------------------------------------||
D||--5-5-5-------------------------------5-------------------------------||
A||--5-5-5-------------------------------5-------------------------------||
E||--3-3-3-3-3-3-3-3-3-3-3-3-3-3-3-3-3-3-3-3-3-3-3-3-3-3-3-3-3-3-3-3-3---||


-BRIDGE- x3
Don't have to be too accurate here, as every note played fits in.
e||----------6-------------8---------------3-------------5------||
B||----4-------4-------6-----6-------1-------1-------3-----3----||
G||------0-------0-------0-------------0-------0-------0--------||
D||--------5-------------------7---------2-------------------4--||
A||--6---------------8-------------3---------------5------------||
E||-------------------------------------------------------------||

Then this
e||----------6-------------8---8--||
B||----4-------4-------6-----6----||
G||------0-------0-------0--------||
D||--------5----------------------||
A||--6---------------8------------||
E||-------------------------------||

-BREAKDOWN-
E||-------------------------------------------------------------------------------||
B||----6--------------------------------------------------------------------------||
G||------0-----0---0----0-0-0---0-0-0--0--0--0--0--0--0-0-0-0--0-0--0--0--0--0-0--||
D||--8-----8-----7------5-5-5---9-0-10-0--13-13-13-13-0-8-0-12-0-10-10-10-12-0-9--||
A||----------8--------------------------------------------------------------------||
E||-------------------------------------------------------------------------------||
                        ^Electric comes in here^

And follow up with this x3
e||-----------------------------------------------------------------------------||
B||-----------------------------------------------------------------------------||
G||--0-0-0-0-0-0-0-0--0-0-0---0-0-0--0--0--0--0--0--0-0-0-0--0-0--0--0--0--0-0--||
D||--8-8-8-0-3-0-7-0--5-5-5---9-0-10-0--13-13-13-13-0-8-0-12-0-10-10-10-12-0-9--||
A||-----------------------------------------------------------------------------||
E||-----------------------------------------------------------------------------||

-FINAL CHORUS-
e||------------------------------------||
B||------------------------------------||
G||--8-------10-------5--------7-------||
D||--8-------10-------5--------7-------||
A||--6--x8---8---x8---3---x8---5---x8--||
E||--6-------8--------3--------5-------||

e||------------------------------------||
B||------------------------------------||
G||--8-------10-------5--------7-------||
D||--8-------10-------5--------7-------||
A||--6--x8---8---x8---3---x8---5---x8--||
E||--6-------8--------3--------5-------||

B||------------------------------------||
G||--8-------10-------5--------7-------||
D||--8-------10-------5--------7-------||
A||--6--x8---8---x8---3---x8---5---x8--||
E||--6-------8--------3--------5-------||

e||------------------||
B||------------------||
G||--8-------10------||
D||--8-------10------||
A||--6--x8---8---x8--||
E||--6-------8-------||

Then it's this x3
e||-----------------------------------------------------------------------------||
B||-----------------------------------------------------------------------------||
G||--0-0-0-0-0-0-0-0--0-0-0---0-0-0--0--0--0--0--0--0-0-0-0--0-0--0--0--0--0-0--||
D||--8-8-8-0-3-0-7-0--5-5-5---9-0-10-0--13-13-13-13-0-8-0-12-0-10-10-10-12-0-9--||
A||-----------------------------------------------------------------------------||
E||-----------------------------------------------------------------------------||

And it ends with
e||-----------------||
B||-----------------||
G||--0-0-0-0-0-0-0--||
D||--8-8-8-0-3-0-7--||
A||-----------------||
E||-----------------||
Composição de Foo Fighters
Colaboración y revision:
  • Élison Duarte
  • Mauricio Andrade
1.431 reproducciones
    • ½ Tono
    • A
    • Bb
    • B
    • C
    • Db
    • D
    • Eb
    • E
    • F
    • F#
    • G
    • Ab
  • Adicionar à lista

    0 comentarios

    Ver todos os comentários
    00:00 / 00:00
    outros vídeos desta música
    repetir qualidade Automático
    Outros vídeos desta música
    00:00 / 00:00
    Automático
    OK